  0
SECTION
  2
HEADER
  9
$ACADVER
  1
AC1015
  9
$ACADMAINTVER
 70
     6
  9
$DWGCODEPAGE
  3
ANSI_1252
  9
$INSBASE
 10
0.0
 20
0.0
 30
0.0
  9
$EXTMIN
 10
0.0
 20
0.0
 30
0.0
  9
$EXTMAX
 10
431.8
 20
279.4
 30
0.0
  9
$LIMMIN
 10
0.0
 20
0.0
  9
$LIMMAX
 10
431.8
 20
279.4
  9
$ORTHOMODE
 70
     0
  9
$REGENMODE
 70
     1
  9
$FILLMODE
 70
     1
  9
$QTEXTMODE
 70
     0
  9
$MIRRTEXT
 70
     1
  9
$LTSCALE
 40
1.0
  9
$ATTMODE
 70
     1
  9
$TEXTSIZE
 40
4.9388888889
  9
$TRACEWID
 40
1.0
  9
$TEXTSTYLE
  7
Standard
  9
$CLAYER
  8
0
  9
$CELTYPE
  6
ByLayer
  9
$CECOLOR
 62
   256
  9
$CELTSCALE
 40
1.0
  9
$DISPSILH
 70
     0
  9
$DIMSCALE
 40
1.0
  9
$DIMASZ
 40
5.1366373698
  9
$DIMEXO
 40
2.0
  9
$DIMDLI
 40
3.75
  9
$DIMRND
 40
0.0
  9
$DIMDLE
 40
0.0
  9
$DIMEXE
 40
2.0
  9
$DIMTP
 40
0.0
  9
$DIMTM
 40
0.0
  9
$DIMTXT
 40
7.0555555556
  9
$DIMCEN
 40
2.5
  9
$DIMTSZ
 40
0.0
  9
$DIMTOL
 70
     0
  9
$DIMLIM
 70
     0
  9
$DIMTIH
 70
     1
  9
$DIMTOH
 70
     1
  9
$DIMSE1
 70
     0
  9
$DIMSE2
 70
     0
  9
$DIMTAD
 70
     1
  9
$DIMZIN
 70
     0
  9
$DIMBLK
  1

  9
$DIMASO
 70
     1
  9
$DIMSHO
 70
     1
  9
$DIMPOST
  1

  9
$DIMAPOST
  1

  9
$DIMALT
 70
     0
  9
$DIMALTD
 70
     3
  9
$DIMALTF
 40
0.0393700787
  9
$DIMLFAC
 40
1.0
  9
$DIMTOFL
 70
     1
  9
$DIMTVP
 40
0.0
  9
$DIMTIX
 70
     0
  9
$DIMSOXD
 70
     0
  9
$DIMSAH
 70
     0
  9
$DIMBLK1
  1

  9
$DIMBLK2
  1

  9
$DIMSTYLE
  2
ISO-25
  9
$DIMCLRD
 70
     0
  9
$DIMCLRE
 70
     0
  9
$DIMCLRT
 70
     0
  9
$DIMTFAC
 40
1.0
  9
$DIMGAP
 40
2.0
  9
$DIMJUST
 70
     0
  9
$DIMSD1
 70
     0
  9
$DIMSD2
 70
     0
  9
$DIMTOLJ
 70
     0
  9
$DIMTZIN
 70
     0
  9
$DIMALTZ
 70
     0
  9
$DIMALTTZ
 70
     0
  9
$DIMUPT
 70
     0
  9
$DIMDEC
 70
     2
  9
$DIMTDEC
 70
     2
  9
$DIMALTU
 70
     2
  9
$DIMALTTD
 70
     3
  9
$DIMTXSTY
  7
Standard
  9
$DIMAUNIT
 70
     0
  9
$DIMADEC
 70
     2
  9
$DIMALTRND
 40
0.0
  9
$DIMAZIN
 70
     0
  9
$DIMDSEP
 70
    44
  9
$DIMATFIT
 70
     3
  9
$DIMFRAC
 70
     0
  9
$DIMLDRBLK
  1

  9
$DIMLUNIT
 70
     2
  9
$DIMLWD
 70
    -2
  9
$DIMLWE
 70
    -2
  9
$DIMTMOVE
 70
     0
  9
$LUNITS
 70
     2
  9
$LUPREC
 70
     2
  9
$SKETCHINC
 40
1.0
  9
$FILLETRAD
 40
10.0
  9
$AUNITS
 70
     0
  9
$AUPREC
 70
     2
  9
$MENU
  1
.
  9
$ELEVATION
 40
0.0
  9
$PELEVATION
 40
0.0
  9
$THICKNESS
 40
0.0
  9
$LIMCHECK
 70
     0
  9
$CHAMFERA
 40
0.0
  9
$CHAMFERB
 40
0.0
  9
$CHAMFERC
 40
0.0
  9
$CHAMFERD
 40
0.0
  9
$SKPOLY
 70
     0
  9
$TDCREATE
 40
2457679.583101088
  9
$TDUCREATE
 40
2457679.499767755
  9
$TDUPDATE
 40
2457679.583101678
  9
$TDUUPDATE
 40
2457679.499768345
  9
$TDINDWG
 40
0.0000000116
  9
$TDUSRTIMER
 40
0.0000000116
  9
$USRTIMER
 70
     1
  9
$ANGBASE
 50
0.0
  9
$ANGDIR
 70
     0
  9
$PDMODE
 70
     0
  9
$PDSIZE
 40
-1.0
  9
$PLINEWID
 40
0.0
  9
$SPLFRAME
 70
     0
  9
$SPLINETYPE
 70
     6
  9
$SPLINESEGS
 70
     8
  9
$HANDSEED
  5
40D
  9
$SURFTAB1
 70
     6
  9
$SURFTAB2
 70
     6
  9
$SURFTYPE
 70
     6
  9
$SURFU
 70
     6
  9
$SURFV
 70
     6
  9
$UCSBASE
  2

  9
$UCSNAME
  2

  9
$UCSORG
 10
0.0
 20
0.0
 30
0.0
  9
$UCSXDIR
 10
1.0
 20
0.0
 30
0.0
  9
$UCSYDIR
 10
0.0
 20
1.0
 30
0.0
  9
$UCSORTHOREF
  2

  9
$UCSORTHOVIEW
 70
     0
  9
$UCSORGTOP
 10
0.0
 20
0.0
 30
0.0
  9
$UCSORGBOTTOM
 10
0.0
 20
0.0
 30
0.0
  9
$UCSORGLEFT
 10
0.0
 20
0.0
 30
0.0
  9
$UCSORGRIGHT
 10
0.0
 20
0.0
 30
0.0
  9
$UCSORGFRONT
 10
0.0
 20
0.0
 30
0.0
  9
$UCSORGBACK
 10
0.0
 20
0.0
 30
0.0
  9
$PUCSBASE
  2

  9
$PUCSNAME
  2

  9
$PUCSORG
 10
0.0
 20
0.0
 30
0.0
  9
$PUCSXDIR
 10
1.0
 20
0.0
 30
0.0
  9
$PUCSYDIR
 10
0.0
 20
1.0
 30
0.0
  9
$PUCSORTHOREF
  2

  9
$PUCSORTHOVIEW
 70
     0
  9
$PUCSORGTOP
 10
0.0
 20
0.0
 30
0.0
  9
$PUCSORGBOTTOM
 10
0.0
 20
0.0
 30
0.0
  9
$PUCSORGLEFT
 10
0.0
 20
0.0
 30
0.0
  9
$PUCSORGRIGHT
 10
0.0
 20
0.0
 30
0.0
  9
$PUCSORGFRONT
 10
0.0
 20
0.0
 30
0.0
  9
$PUCSORGBACK
 10
0.0
 20
0.0
 30
0.0
  9
$USERI1
 70
     0
  9
$USERI2
 70
     0
  9
$USERI3
 70
     0
  9
$USERI4
 70
     0
  9
$USERI5
 70
     0
  9
$USERR1
 40
0.0
  9
$USERR2
 40
0.0
  9
$USERR3
 40
0.0
  9
$USERR4
 40
0.0
  9
$USERR5
 40
0.0
  9
$WORLDVIEW
 70
     1
  9
$SHADEDGE
 70
     3
  9
$SHADEDIF
 70
    70
  9
$TILEMODE
 70
     1
  9
$MAXACTVP
 70
    64
  9
$PINSBASE
 10
0.0
 20
0.0
 30
0.0
  9
$PLIMCHECK
 70
     0
  9
$PEXTMIN
 10
1.0000000000E+20
 20
1.0000000000E+20
 30
1.0000000000E+20
  9
$PEXTMAX
 10
-1.0000000000E+20
 20
-1.0000000000E+20
 30
-1.0000000000E+20
  9
$PLIMMIN
 10
0.0
 20
0.0
  9
$PLIMMAX
 10
420.0
 20
297.0
  9
$UNITMODE
 70
     0
  9
$VISRETAIN
 70
     1
  9
$PLINEGEN
 70
     0
  9
$PSLTSCALE
 70
     1
  9
$TREEDEPTH
 70
  3020
  9
$CMLSTYLE
  2
Standard
  9
$CMLJUST
 70
     0
  9
$CMLSCALE
 40
20.0
  9
$PROXYGRAPHICS
 70
     1
  9
$MEASUREMENT
 70
     1
  9
$CELWEIGHT
370
    -1
  9
$ENDCAPS
280
     0
  9
$JOINSTYLE
280
     0
  9
$LWDISPLAY
290
     1
  9
$INSUNITS
 70
     4
  9
$HYPERLINKBASE
  1

  9
$STYLESHEET
  1

  9
$XEDIT
290
     1
  9
$CEPSNTYPE
380
     0
  9
$PSTYLEMODE
290
     1
  9
$FINGERPRINTGUID
  2
{AB67973C-9124-4FF7-B3E6-5AC53195C153}
  9
$VERSIONGUID
  2
{FAEB1C32-E019-11D5-929B-00C0DF256EC4}
  9
$EXTNAMES
290
     1
  9
$PSVPSCALE
 40
0.0
  9
$OLESTARTUP
290
     0
  0
ENDSEC
  0
SECTION
  2
CLASSES
  0
CLASS
  1
ACDBDICTIONARYWDFLT
  2
AcDbDictionaryWithDefault
  3
ObjectDBX Classes
 90
        0
280
     0
281
     0
  0
CLASS
  1
VISUALSTYLE
  2
AcDbVisualStyle
  3
ObjectDBX Classes
 90
     4095
280
     0
281
     0
  0
CLASS
  1
MATERIAL
  2
AcDbMaterial
  3
ObjectDBX Classes
 90
     1153
280
     0
281
     0
  0
CLASS
  1
SCALE
  2
AcDbScale
  3
ObjectDBX Classes
 90
     1153
280
     0
281
     0
  0
CLASS
  1
TABLESTYLE
  2
AcDbTableStyle
  3
ObjectDBX Classes
 90
     4095
280
     0
281
     0
  0
CLASS
  1
MLEADERSTYLE
  2
AcDbMLeaderStyle
  3
ACDB_MLEADERSTYLE_CLASS
 90
     4095
280
     0
281
     0
  0
CLASS
  1
SUN
  2
AcDbSun
  3
SCENEOE
 90
     1153
280
     0
281
     0
  0
CLASS
  1
ACDBPLACEHOLDER
  2
AcDbPlaceHolder
  3
ObjectDBX Classes
 90
        0
280
     0
281
     0
  0
CLASS
  1
LAYOUT
  2
AcDbLayout
  3
ObjectDBX Classes
 90
        0
280
     0
281
     0
  0
ENDSEC
  0
SECTION
  2
TABLES
  0
TABLE
  2
VPORT
  5
8
330
0
100
AcDbSymbolTable
 70
     1
  0
VPORT
  5
29
330
8
100
AcDbSymbolTableRecord
100
AcDbViewportTableRecord
  2
*Active
 70
     0
 10
0.0
 20
0.0
 11
1.0
 21
1.0
 12
215.9
 22
139.7
 13
0.0
 23
0.0
 14
10.0
 24
10.0
 15
10.0
 25
10.0
 16
0.0
 26
0.0
 36
1.0
 17
0.0
 27
0.0
 37
0.0
 40
279.4
 41
1.5454545455
 42
50.0
 43
0.0
 44
0.0
 50
0.0
 51
0.0
 71
     0
 72
  2000
 73
     1
 74
     3
 75
     0
 76
     0
 77
     0
 78
     0
281
     0
 65
     1
110
0.0
120
0.0
130
0.0
111
1.0
121
0.0
131
0.0
112
0.0
122
1.0
132
0.0
 79
     0
146
0.0
  0
ENDTAB
  0
TABLE
  2
LTYPE
  5
5
330
0
100
AcDbSymbolTable
 70
     6
  0
LTYPE
  5
14
330
5
100
AcDbSymbolTableRecord
100
AcDbLinetypeTableRecord
  2
ByBlock
 70
     0
  3

 72
    65
 73
     0
 40
0.0
  0
LTYPE
  5
15
330
5
100
AcDbSymbolTableRecord
100
AcDbLinetypeTableRecord
  2
ByLayer
 70
     0
  3

 72
    65
 73
     0
 40
0.0
  0
LTYPE
  5
16
330
5
100
AcDbSymbolTableRecord
100
AcDbLinetypeTableRecord
  2
Continuous
 70
     0
  3
Solid line
 72
    65
 73
     0
 40
0.0
  0
LTYPE
  5
6E
330
5
100
AcDbSymbolTableRecord
100
AcDbLinetypeTableRecord
  2
HIDDEN
 70
     0
  3
Hidden __ __ __ __ __ __ __ __ __ __ __ __ __ __
 72
    65
 73
     2
 40
1.905
 49
1.27
 74
     0
 49
-0.635
 74
     0
  0
LTYPE
  5
6F
330
5
100
AcDbSymbolTableRecord
100
AcDbLinetypeTableRecord
  2
PHANTOM
 70
     0
  3
Phantom ______  __  __  ______  __  __  ______
 72
    65
 73
     6
 40
12.7
 49
6.35
 74
     0
 49
-1.27
 74
     0
 49
1.27
 74
     0
 49
-1.27
 74
     0
 49
1.27
 74
     0
 49
-1.27
 74
     0
  0
LTYPE
  5
70
330
5
100
AcDbSymbolTableRecord
100
AcDbLinetypeTableRecord
  2
CENTER
 70
     0
  3
Center ____ _ ____ _ ____ _ ____ _ ____ _ ____
 72
    65
 73
     4
 40
10.16
 49
6.35
 74
     0
 49
-1.27
 74
     0
 49
1.27
 74
     0
 49
-1.27
 74
     0
  0
LTYPE
  5
71
330
5
100
AcDbSymbolTableRecord
100
AcDbLinetypeTableRecord
  2
CENTERX2
 70
     0
  3
Center (2x) ________  __  ________  __  _____
 72
    65
 73
     4
 40
20.32
 49
12.7
 74
     0
 49
-2.54
 74
     0
 49
2.54
 74
     0
 49
-2.54
 74
     0
  0
LTYPE
  5
72
330
5
100
AcDbSymbolTableRecord
100
AcDbLinetypeTableRecord
  2
DOT2
 70
     0
  3
Dot (.5x) ........................................
 72
    65
 73
     2
 40
0.635
 49
0.0
 74
     0
 49
-0.635
 74
     0
  0
ENDTAB
  0
TABLE
  2
LAYER
  5
2
330
0
100
AcDbSymbolTable
 70
     3
  0
LAYER
  5
10
330
2
100
AcDbSymbolTableRecord
100
AcDbLayerTableRecord
  2
0
 70
     0
 62
     7
  6
Continuous
370
    -3
390
F
  0
LAYER
  5
73
330
2
100
AcDbSymbolTableRecord
100
AcDbLayerTableRecord
  2
SLD-0
 70
     0
 62
   179
  6
Continuous
370
    -3
390
F
  0
LAYER
  5
74
330
2
100
AcDbSymbolTableRecord
100
AcDbLayerTableRecord
  2
EBENE_1
 70
     0
 62
   179
  6
Continuous
370
    -3
390
F
  0
ENDTAB
  0
TABLE
  2
STYLE
  5
3
330
0
100
AcDbSymbolTable
 70
     3
  0
STYLE
  5
11
330
3
100
AcDbSymbolTableRecord
100
AcDbTextStyleTableRecord
  2
Standard
 70
     0
 40
0.0
 41
1.0
 50
0.0
 71
     0
 42
4.9388888889
  3
txt
  4

  0
STYLE
  5
96
330
3
100
AcDbSymbolTableRecord
100
AcDbTextStyleTableRecord
  2
SLDTEXTSTYLE0
 70
     0
 40
0.0
 41
0.605
 50
0.0
 71
     0
 42
4.9388888889
  3
TXT
  4

  0
STYLE
  5
16E
330
3
100
AcDbSymbolTableRecord
100
AcDbTextStyleTableRecord
  2
SLDTEXTSTYLE1
 70
     0
 40
0.0
 41
0.75
 50
0.0
 71
     0
 42
4.9388888889
  3
TXT
  4

  0
ENDTAB
  0
TABLE
  2
VIEW
  5
6
330
0
100
AcDbSymbolTable
 70
     0
  0
ENDTAB
  0
TABLE
  2
UCS
  5
7
330
0
100
AcDbSymbolTable
 70
     0
  0
ENDTAB
  0
TABLE
  2
APPID
  5
9
330
0
100
AcDbSymbolTable
 70
     1
  0
APPID
  5
12
330
9
100
AcDbSymbolTableRecord
100
AcDbRegAppTableRecord
  2
ACAD
 70
     0
  0
ENDTAB
  0
TABLE
  2
DIMSTYLE
  5
A
330
0
100
AcDbSymbolTable
 70
     1
100
AcDbDimStyleTable
  0
DIMSTYLE
105
27
330
A
100
AcDbSymbolTableRecord
100
AcDbDimStyleTableRecord
  2
ISO-25
 70
     0
 41
2.5
 42
0.625
 43
3.75
 44
1.25
 73
     0
 74
     0
 77
     1
 78
     8
140
2.5
141
2.5
143
0.0393700787
147
0.625
171
     3
172
     1
178
     0
271
     2
272
     2
274
     3
278
    44
283
     0
284
     8
340
11
  0
ENDTAB
  0
TABLE
  2
BLOCK_RECORD
  5
1
330
0
100
AcDbSymbolTable
 70
    25
  0
BLOCK_RECORD
  5
1F
330
1
100
AcDbSymbolTableRecord
100
AcDbBlockTableRecord
  2
*Model_Space
340
22
  0
BLOCK_RECORD
  5
1B
330
1
100
AcDbSymbolTableRecord
100
AcDbBlockTableRecord
  2
*Paper_Space
340
1E
  0
BLOCK_RECORD
  5
23
330
1
100
AcDbSymbolTableRecord
100
AcDbBlockTableRecord
  2
*Paper_Space0
340
26
  0
BLOCK_RECORD
  5
75
330
1
100
AcDbSymbolTableRecord
100
AcDbBlockTableRecord
  2
Block1
340
0
102
{BLKREFS
331
16D
102
}
  0
BLOCK_RECORD
  5
8C
330
1
100
AcDbSymbolTableRecord
100
AcDbBlockTableRecord
  2
SW_BLOCK_DIMENSION_0
340
0
102
{BLKREFS
331
98
102
}
  0
BLOCK_RECORD
  5
8F
330
1
100
AcDbSymbolTableRecord
100
AcDbBlockTableRecord
  2
_ORIGIN
340
0
102
{BLKREFS
331
94
331
104
102
}
  0
BLOCK_RECORD
  5
99
330
1
100
AcDbSymbolTableRecord
100
AcDbBlockTableRecord
  2
SW_BLOCK_DIMENSION_1
340
0
102
{BLKREFS
331
A0
102
}
  0
BLOCK_RECORD
  5
A1
330
1
100
AcDbSymbolTableRecord
100
AcDbBlockTableRecord
  2
SW_BLOCK_DIMENSION_2
340
0
102
{BLKREFS
331
A8
102
}
  0
BLOCK_RECORD
  5
A9
330
1
100
AcDbSymbolTableRecord
100
AcDbBlockTableRecord
  2
SW_BLOCK_DIMENSION_3
340
0
102
{BLKREFS
331
B0
102
}
  0
BLOCK_RECORD
  5
B1
330
1
100
AcDbSymbolTableRecord
100
AcDbBlockTableRecord
  2
SW_BLOCK_DIMENSION_4
340
0
102
{BLKREFS
331
B8
102
}
  0
BLOCK_RECORD
  5
B9
330
1
100
AcDbSymbolTableRecord
100
AcDbBlockTableRecord
  2
SW_BLOCK_DIMENSION_5
340
0
102
{BLKREFS
331
C0
102
}
  0
BLOCK_RECORD
  5
C1
330
1
100
AcDbSymbolTableRecord
100
AcDbBlockTableRecord
  2
SW_BLOCK_DIMENSION_6
340
0
102
{BLKREFS
331
C8
102
}
  0
BLOCK_RECORD
  5
C9
330
1
100
AcDbSymbolTableRecord
100
AcDbBlockTableRecord
  2
SW_BLOCK_DIMENSION_7
340
0
102
{BLKREFS
331
D0
102
}
  0
BLOCK_RECORD
  5
D1
330
1
100
AcDbSymbolTableRecord
100
AcDbBlockTableRecord
  2
SW_BLOCK_DIMENSION_8
340
0
102
{BLKREFS
331
D8
102
}
  0
BLOCK_RECORD
  5
D9
330
1
100
AcDbSymbolTableRecord
100
AcDbBlockTableRecord
  2
SW_BLOCK_DIMENSION_9
340
0
102
{BLKREFS
331
E0
102
}
  0
BLOCK_RECORD
  5
E1
330
1
100
AcDbSymbolTableRecord
100
AcDbBlockTableRecord
  2
SW_BLOCK_DIMENSION_10
340
0
102
{BLKREFS
331
E8
102
}
  0
BLOCK_RECORD
  5
E9
330
1
100
AcDbSymbolTableRecord
100
AcDbBlockTableRecord
  2
SW_BLOCK_DIMENSION_11
340
0
102
{BLKREFS
331
F0
102
}
  0
BLOCK_RECORD
  5
F1
330
1
100
AcDbSymbolTableRecord
100
AcDbBlockTableRecord
  2
SW_BLOCK_DIMENSION_12
340
0
102
{BLKREFS
331
F8
102
}
  0
BLOCK_RECORD
  5
F9
330
1
100
AcDbSymbolTableRecord
100
AcDbBlockTableRecord
  2
SW_BLOCK_DIMENSION_13
340
0
102
{BLKREFS
331
100
102
}
  0
BLOCK_RECORD
  5
101
330
1
100
AcDbSymbolTableRecord
100
AcDbBlockTableRecord
  2
SW_BLOCK_DIMENSION_14
340
0
102
{BLKREFS
331
110
102
}
  0
BLOCK_RECORD
  5
111
330
1
100
AcDbSymbolTableRecord
100
AcDbBlockTableRecord
  2
SW_BLOCK_DIMENSION_15
340
0
102
{BLKREFS
331
121
102
}
  0
BLOCK_RECORD
  5
122
330
1
100
AcDbSymbolTableRecord
100
AcDbBlockTableRecord
  2
SW_BLOCK_DIMENSION_16
340
0
102
{BLKREFS
331
132
102
}
  0
BLOCK_RECORD
  5
133
330
1
100
AcDbSymbolTableRecord
100
AcDbBlockTableRecord
  2
SW_BLOCK_DIMENSION_17
340
0
102
{BLKREFS
331
143
102
}
  0
BLOCK_RECORD
  5
144
330
1
100
AcDbSymbolTableRecord
100
AcDbBlockTableRecord
  2
SW_BLOCK_DIMENSION_18
340
0
102
{BLKREFS
331
154
102
}
  0
BLOCK_RECORD
  5
155
330
1
100
AcDbSymbolTableRecord
100
AcDbBlockTableRecord
  2
SW_BLOCK_DIMENSION_19
340
0
102
{BLKREFS
331
165
102
}
  0
BLOCK_RECORD
  5
166
330
1
100
AcDbSymbolTableRecord
100
AcDbBlockTableRecord
  2
SW_NOTE_0
340
0
102
{BLKREFS
331
16B
102
}
  0
BLOCK_RECORD
  5
171
330
1
100
AcDbSymbolTableRecord
100
AcDbBlockTableRecord
  2
SW_NOTE_1
340
0
102
{BLKREFS
331
178
102
}
  0
ENDTAB
  0
ENDSEC
  0
SECTION
  2
BLOCKS
  0
BLOCK
  5
20
330
1F
100
AcDbEntity
  8
0
100
AcDbBlockBegin
  2
*Model_Space
 70
     0
 10
0.0
 20
0.0
 30
0.0
  3
*Model_Space
  1

  0
ENDBLK
  5
21
330
1F
100
AcDbEntity
  8
0
100
AcDbBlockEnd
  0
BLOCK
  5
1C
330
1B
100
AcDbEntity
 67
     1
  8
0
100
AcDbBlockBegin
  2
*Paper_Space
 70
     0
 10
0.0
 20
0.0
 30
0.0
  3
*Paper_Space
  1

  0
ENDBLK
  5
1D
330
1B
100
AcDbEntity
 67
     1
  8
0
100
AcDbBlockEnd
  0
BLOCK
  5
24
330
23
100
AcDbEntity
  8
0
100
AcDbBlockBegin
  2
*Paper_Space0
 70
     0
 10
0.0
 20
0.0
 30
0.0
  3
*Paper_Space0
  1

  0
ENDBLK
  5
25
330
23
100
AcDbEntity
  8
0
100
AcDbBlockEnd
  0
BLOCK
  5
76
330
75
100
AcDbEntity
  8
0
100
AcDbBlockBegin
  2
Block1
 70
     0
 10
0.0
 20
0.0
 30
0.0
  3
Block1
  1

  0
LINE
  5
78
330
75
100
AcDbEntity
  8
EBENE_1
100
AcDbLine
 10
363.6834285714
 20
41.3579706949
 30
0.0
 11
388.6834285714
 21
41.3579706949
 31
0.0
  0
LINE
  5
79
330
75
100
AcDbEntity
  8
EBENE_1
100
AcDbLine
 10
374.9034285714
 20
41.3579706949
 30
0.0
 11
374.9034285714
 21
171.3579706949
 31
0.0
  0
LINE
  5
7A
330
75
100
AcDbEntity
  8
EBENE_1
100
AcDbLine
 10
374.9034285714
 20
51.3579706949
 30
0.0
 11
384.9034285714
 21
51.3579706949
 31
0.0
  0
LINE
  5
7B
330
75
100
AcDbEntity
  8
EBENE_1
100
AcDbLine
 10
374.9034285714
 20
61.3579706949
 30
0.0
 11
384.9034285714
 21
61.3579706949
 31
0.0
  0
LINE
  5
7C
330
75
100
AcDbEntity
  8
EBENE_1
100
AcDbLine
 10
374.9034285714
 20
71.3579706949
 30
0.0
 11
384.9034285714
 21
71.3579706949
 31
0.0
  0
LINE
  5
7D
330
75
100
AcDbEntity
  8
EBENE_1
100
AcDbLine
 10
374.9034285714
 20
81.3579706949
 30
0.0
 11
384.9034285714
 21
81.3579706949
 31
0.0
  0
LINE
  5
7E
330
75
100
AcDbEntity
  8
EBENE_1
100
AcDbLine
 10
374.9034285714
 20
91.3579706949
 30
0.0
 11
384.9034285714
 21
91.3579706949
 31
0.0
  0
LINE
  5
7F
330
75
100
AcDbEntity
  8
EBENE_1
100
AcDbLine
 10
374.9034285714
 20
101.3579706949
 30
0.0
 11
384.9034285714
 21
101.3579706949
 31
0.0
  0
LINE
  5
80
330
75
100
AcDbEntity
  8
EBENE_1
100
AcDbLine
 10
374.9034285714
 20
111.3579706949
 30
0.0
 11
384.9034285714
 21
111.3579706949
 31
0.0
  0
LINE
  5
81
330
75
100
AcDbEntity
  8
EBENE_1
100
AcDbLine
 10
374.9034285714
 20
121.3579706949
 30
0.0
 11
384.9034285714
 21
121.3579706949
 31
0.0
  0
LINE
  5
82
330
75
100
AcDbEntity
  8
EBENE_1
100
AcDbLine
 10
374.9034285714
 20
131.3579706949
 30
0.0
 11
384.9034285714
 21
131.3579706949
 31
0.0
  0
LINE
  5
83
330
75
100
AcDbEntity
  8
EBENE_1
100
AcDbLine
 10
374.9034285714
 20
141.3579706949
 30
0.0
 11
384.9034285714
 21
141.3579706949
 31
0.0
  0
LINE
  5
84
330
75
100
AcDbEntity
  8
EBENE_1
100
AcDbLine
 10
374.9034285714
 20
151.3579706949
 30
0.0
 11
384.9034285714
 21
151.3579706949
 31
0.0
  0
LINE
  5
85
330
75
100
AcDbEntity
  8
EBENE_1
100
AcDbLine
 10
374.9034285714
 20
161.3579706949
 30
0.0
 11
384.9034285714
 21
161.3579706949
 31
0.0
  0
LINE
  5
86
330
75
100
AcDbEntity
  8
EBENE_1
100
AcDbLine
 10
374.9034285714
 20
171.3579706949
 30
0.0
 11
384.9034285714
 21
171.3579706949
 31
0.0
  0
LINE
  5
87
330
75
100
AcDbEntity
  8
EBENE_1
100
AcDbLine
 10
374.9034285714
 20
66.7579706949
 30
0.0
 11
362.9034285714
 21
66.7579706949
 31
0.0
  0
LINE
  5
88
330
75
100
AcDbEntity
  8
EBENE_1
100
AcDbLine
 10
374.9034285714
 20
92.1579706949
 30
0.0
 11
362.9034285714
 21
92.1579706949
 31
0.0
  0
LINE
  5
89
330
75
100
AcDbEntity
  8
EBENE_1
100
AcDbLine
 10
374.9034285714
 20
117.5579706949
 30
0.0
 11
362.9034285714
 21
117.5579706949
 31
0.0
  0
LINE
  5
8A
330
75
100
AcDbEntity
  8
EBENE_1
100
AcDbLine
 10
374.9034285714
 20
142.9579706949
 30
0.0
 11
362.9034285714
 21
142.9579706949
 31
0.0
  0
LINE
  5
8B
330
75
100
AcDbEntity
  8
EBENE_1
100
AcDbLine
 10
374.9034285714
 20
168.3579706949
 30
0.0
 11
362.9034285714
 21
168.3579706949
 31
0.0
  0
INSERT
  5
98
330
75
100
AcDbEntity
  8
EBENE_1
100
AcDbBlockReference
  2
SW_BLOCK_DIMENSION_0
 10
397.2096946378
 20
38.9914197296
 30
0.0
  0
INSERT
  5
A0
330
75
100
AcDbEntity
  8
EBENE_1
100
AcDbBlockReference
  2
SW_BLOCK_DIMENSION_1
 10
397.2096946378
 20
48.9914197296
 30
0.0
  0
INSERT
  5
A8
330
75
100
AcDbEntity
  8
EBENE_1
100
AcDbBlockReference
  2
SW_BLOCK_DIMENSION_2
 10
397.2096946378
 20
58.9914197296
 30
0.0
  0
INSERT
  5
B0
330
75
100
AcDbEntity
  8
EBENE_1
100
AcDbBlockReference
  2
SW_BLOCK_DIMENSION_3
 10
397.2096946378
 20
68.9914197296
 30
0.0
  0
INSERT
  5
B8
330
75
100
AcDbEntity
  8
EBENE_1
100
AcDbBlockReference
  2
SW_BLOCK_DIMENSION_4
 10
397.2096946378
 20
78.9914197296
 30
0.0
  0
INSERT
  5
C0
330
75
100
AcDbEntity
  8
EBENE_1
100
AcDbBlockReference
  2
SW_BLOCK_DIMENSION_5
 10
397.2096946378
 20
88.9914197296
 30
0.0
  0
INSERT
  5
C8
330
75
100
AcDbEntity
  8
EBENE_1
100
AcDbBlockReference
  2
SW_BLOCK_DIMENSION_6
 10
397.2096946378
 20
98.9914197296
 30
0.0
  0
INSERT
  5
D0
330
75
100
AcDbEntity
  8
EBENE_1
100
AcDbBlockReference
  2
SW_BLOCK_DIMENSION_7
 10
397.2096946378
 20
108.9914197296
 30
0.0
  0
INSERT
  5
D8
330
75
100
AcDbEntity
  8
EBENE_1
100
AcDbBlockReference
  2
SW_BLOCK_DIMENSION_8
 10
397.2096946378
 20
118.9914197296
 30
0.0
  0
INSERT
  5
E0
330
75
100
AcDbEntity
  8
EBENE_1
100
AcDbBlockReference
  2
SW_BLOCK_DIMENSION_9
 10
397.2096946378
 20
128.9914197296
 30
0.0
  0
INSERT
  5
E8
330
75
100
AcDbEntity
  8
EBENE_1
100
AcDbBlockReference
  2
SW_BLOCK_DIMENSION_10
 10
397.2096946378
 20
138.9914197296
 30
0.0
  0
INSERT
  5
F0
330
75
100
AcDbEntity
  8
EBENE_1
100
AcDbBlockReference
  2
SW_BLOCK_DIMENSION_11
 10
397.2096946378
 20
148.9914197296
 30
0.0
  0
INSERT
  5
F8
330
75
100
AcDbEntity
  8
EBENE_1
100
AcDbBlockReference
  2
SW_BLOCK_DIMENSION_12
 10
397.2096946378
 20
158.9914197296
 30
0.0
  0
INSERT
  5
100
330
75
100
AcDbEntity
  8
EBENE_1
100
AcDbBlockReference
  2
SW_BLOCK_DIMENSION_13
 10
397.2096946378
 20
168.9914197296
 30
0.0
  0
INSERT
  5
110
330
75
100
AcDbEntity
  8
EBENE_1
100
AcDbBlockReference
  2
SW_BLOCK_DIMENSION_14
 10
337.2987953614
 20
36.1691980072
 30
0.0
  0
INSERT
  5
121
330
75
100
AcDbEntity
  8
EBENE_1
100
AcDbBlockReference
  2
SW_BLOCK_DIMENSION_15
 10
337.2987953614
 20
61.5691980072
 30
0.0
  0
INSERT
  5
132
330
75
100
AcDbEntity
  8
EBENE_1
100
AcDbBlockReference
  2
SW_BLOCK_DIMENSION_16
 10
337.2987953614
 20
86.9691980072
 30
0.0
  0
INSERT
  5
143
330
75
100
AcDbEntity
  8
EBENE_1
100
AcDbBlockReference
  2
SW_BLOCK_DIMENSION_17
 10
337.2987953614
 20
112.3691980072
 30
0.0
  0
INSERT
  5
154
330
75
100
AcDbEntity
  8
EBENE_1
100
AcDbBlockReference
  2
SW_BLOCK_DIMENSION_18
 10
336.8284243759
 20
137.7691980072
 30
0.0
  0
INSERT
  5
165
330
75
100
AcDbEntity
  8
EBENE_1
100
AcDbBlockReference
  2
SW_BLOCK_DIMENSION_19
 10
337.2987953614
 20
163.1691980072
 30
0.0
  0
INSERT
  5
16B
330
75
100
AcDbEntity
  8
EBENE_1
 62
   179
100
AcDbBlockReference
  2
SW_NOTE_0
 10
337.5586028241
 20
28.8175207347
 30
0.0
  0
MTEXT
  5
16C
330
75
100
AcDbEntity
  8
EBENE_1
100
AcDbMText
 10
393.160738319
 20
33.5924424874
 30
0.0
 40
3.7041666667
 41
0.0
 71
     1
 72
     1
  1
mm
  7
SLDTEXTSTYLE0
 73
     1
 44
1.0
  0
ENDBLK
  5
77
330
75
100
AcDbEntity
  8
0
100
AcDbBlockEnd
  0
BLOCK
  5
8D
330
8C
100
AcDbEntity
  8
0
100
AcDbBlockBegin
  2
SW_BLOCK_DIMENSION_0
 70
     0
 10
0.0
 20
0.0
 30
0.0
  3
SW_BLOCK_DIMENSION_0
  1

  0
INSERT
  5
94
330
8C
100
AcDbEntity
  8
EBENE_1
 62
     0
100
AcDbBlockReference
  2
_ORIGIN
 10
-1.5805038061
 20
2.3665509652
 30
0.0
 41
0.9483022837
 42
0.9483022837
 50
0.0
  0
LINE
  5
95
330
8C
100
AcDbEntity
  8
EBENE_1
 62
     0
100
AcDbLine
 10
-6.5262660664
 20
2.3665509652
 30
0.0
 11
0.0
 21
2.3665509652
 31
0.0
  0
MTEXT
  5
97
330
8C
100
AcDbEntity
  8
EBENE_1
 62
     0
100
AcDbMText
 10
0.0
 20
4.0927900738
 30
0.0
 40
3.175
 41
0.0
 71
     1
 72
     1
  1
0
  7
SLDTEXTSTYLE0
 73
     1
 44
1.0
  0
ENDBLK
  5
8E
330
8C
100
AcDbEntity
  8
0
100
AcDbBlockEnd
  0
BLOCK
  5
90
330
8F
100
AcDbEntity
  8
0
100
AcDbBlockBegin
  2
_ORIGIN
 70
     0
 10
0.0
 20
0.0
 30
0.0
  3
_ORIGIN
  1

  0
CIRCLE
  5
92
330
8F
100
AcDbEntity
  8
0
  6
ByBlock
 62
     0
370
    -2
100
AcDbCircle
 10
0.0
 20
0.0
 30
0.0
 40
0.5
  0
LINE
  5
93
330
8F
100
AcDbEntity
  8
0
  6
ByBlock
 62
     0
370
    -2
100
AcDbLine
 10
0.0
 20
0.0
 30
0.0
 11
-1.0
 21
0.0
 31
0.0
  0
ENDBLK
  5
91
330
8F
100
AcDbEntity
  8
0
100
AcDbBlockEnd
  0
BLOCK
  5
9A
330
99
100
AcDbEntity
  8
0
100
AcDbBlockBegin
  2
SW_BLOCK_DIMENSION_1
 70
     0
 10
0.0
 20
0.0
 30
0.0
  3
SW_BLOCK_DIMENSION_1
  1

  0
SOLID
  5
9C
330
99
100
AcDbEntity
  8
EBENE_1
 62
     0
100
AcDbTrace
 10
-1.5805038061
 20
2.3665509652
 30
0.0
 11
-2.0546549479
 21
-0.7154314566
 31
0.0
 12
-1.1063526643
 22
-0.7154314566
 32
0.0
 13
-1.1063526643
 23
-0.7154314566
 33
0.0
  0
LINE
  5
9D
330
99
100
AcDbEntity
  8
EBENE_1
 62
     0
100
AcDbLine
 10
-10.3062660664
 20
2.3665509652
 30
0.0
 11
0.0
 21
2.3665509652
 31
0.0
  0
LINE
  5
9E
330
99
100
AcDbEntity
  8
EBENE_1
 62
     0
100
AcDbLine
 10
-1.5805038061
 20
-7.6334490348
 30
0.0
 11
-1.5805038061
 21
2.3665509652
 31
0.0
  0
MTEXT
  5
9F
330
99
100
AcDbEntity
  8
EBENE_1
 62
     0
100
AcDbMText
 10
0.0
 20
4.0927900738
 30
0.0
 40
3.175
 41
0.0
 71
     1
 72
     1
  1
10
  7
SLDTEXTSTYLE0
 73
     1
 44
1.0
  0
ENDBLK
  5
9B
330
99
100
AcDbEntity
  8
0
100
AcDbBlockEnd
  0
BLOCK
  5
A2
330
A1
100
AcDbEntity
  8
0
100
AcDbBlockBegin
  2
SW_BLOCK_DIMENSION_2
 70
     0
 10
0.0
 20
0.0
 30
0.0
  3
SW_BLOCK_DIMENSION_2
  1

  0
SOLID
  5
A4
330
A1
100
AcDbEntity
  8
EBENE_1
 62
     0
100
AcDbTrace
 10
-1.5805038061
 20
2.3665509652
 30
0.0
 11
-2.0546549479
 21
-0.7154314566
 31
0.0
 12
-1.1063526643
 22
-0.7154314566
 32
0.0
 13
-1.1063526643
 23
-0.7154314566
 33
0.0
  0
LINE
  5
A5
330
A1
100
AcDbEntity
  8
EBENE_1
 62
     0
100
AcDbLine
 10
-10.3062660664
 20
2.3665509652
 30
0.0
 11
0.0
 21
2.3665509652
 31
0.0
  0
LINE
  5
A6
330
A1
100
AcDbEntity
  8
EBENE_1
 62
     0
100
AcDbLine
 10
-1.5805038061
 20
-7.6334490348
 30
0.0
 11
-1.5805038061
 21
2.3665509652
 31
0.0
  0
MTEXT
  5
A7
330
A1
100
AcDbEntity
  8
EBENE_1
 62
     0
100
AcDbMText
 10
0.0
 20
4.0927900738
 30
0.0
 40
3.175
 41
0.0
 71
     1
 72
     1
  1
20
  7
SLDTEXTSTYLE0
 73
     1
 44
1.0
  0
ENDBLK
  5
A3
330
A1
100
AcDbEntity
  8
0
100
AcDbBlockEnd
  0
BLOCK
  5
AA
330
A9
100
AcDbEntity
  8
0
100
AcDbBlockBegin
  2
SW_BLOCK_DIMENSION_3
 70
     0
 10
0.0
 20
0.0
 30
0.0
  3
SW_BLOCK_DIMENSION_3
  1

  0
SOLID
  5
AC
330
A9
100
AcDbEntity
  8
EBENE_1
 62
     0
100
AcDbTrace
 10
-1.5805038061
 20
2.3665509652
 30
0.0
 11
-2.0546549479
 21
-0.7154314566
 31
0.0
 12
-1.1063526643
 22
-0.7154314566
 32
0.0
 13
-1.1063526643
 23
-0.7154314566
 33
0.0
  0
LINE
  5
AD
330
A9
100
AcDbEntity
  8
EBENE_1
 62
     0
100
AcDbLine
 10
-10.3062660664
 20
2.3665509652
 30
0.0
 11
0.0
 21
2.3665509652
 31
0.0
  0
LINE
  5
AE
330
A9
100
AcDbEntity
  8
EBENE_1
 62
     0
100
AcDbLine
 10
-1.5805038061
 20
-7.6334490348
 30
0.0
 11
-1.5805038061
 21
2.3665509652
 31
0.0
  0
MTEXT
  5
AF
330
A9
100
AcDbEntity
  8
EBENE_1
 62
     0
100
AcDbMText
 10
0.0
 20
4.0927900738
 30
0.0
 40
3.175
 41
0.0
 71
     1
 72
     1
  1
30
  7
SLDTEXTSTYLE0
 73
     1
 44
1.0
  0
ENDBLK
  5
AB
330
A9
100
AcDbEntity
  8
0
100
AcDbBlockEnd
  0
BLOCK
  5
B2
330
B1
100
AcDbEntity
  8
0
100
AcDbBlockBegin
  2
SW_BLOCK_DIMENSION_4
 70
     0
 10
0.0
 20
0.0
 30
0.0
  3
SW_BLOCK_DIMENSION_4
  1

  0
SOLID
  5
B4
330
B1
100
AcDbEntity
  8
EBENE_1
 62
     0
100
AcDbTrace
 10
-1.5805038061
 20
2.3665509652
 30
0.0
 11
-2.0546549479
 21
-0.7154314566
 31
0.0
 12
-1.1063526643
 22
-0.7154314566
 32
0.0
 13
-1.1063526643
 23
-0.7154314566
 33
0.0
  0
LINE
  5
B5
330
B1
100
AcDbEntity
  8
EBENE_1
 62
     0
100
AcDbLine
 10
-10.3062660664
 20
2.3665509652
 30
0.0
 11
0.0
 21
2.3665509652
 31
0.0
  0
LINE
  5
B6
330
B1
100
AcDbEntity
  8
EBENE_1
 62
     0
100
AcDbLine
 10
-1.5805038061
 20
-7.6334490348
 30
0.0
 11
-1.5805038061
 21
2.3665509652
 31
0.0
  0
MTEXT
  5
B7
330
B1
100
AcDbEntity
  8
EBENE_1
 62
     0
100
AcDbMText
 10
0.0
 20
4.0927900738
 30
0.0
 40
3.175
 41
0.0
 71
     1
 72
     1
  1
40
  7
SLDTEXTSTYLE0
 73
     1
 44
1.0
  0
ENDBLK
  5
B3
330
B1
100
AcDbEntity
  8
0
100
AcDbBlockEnd
  0
BLOCK
  5
BA
330
B9
100
AcDbEntity
  8
0
100
AcDbBlockBegin
  2
SW_BLOCK_DIMENSION_5
 70
     0
 10
0.0
 20
0.0
 30
0.0
  3
SW_BLOCK_DIMENSION_5
  1

  0
SOLID
  5
BC
330
B9
100
AcDbEntity
  8
EBENE_1
 62
     0
100
AcDbTrace
 10
-1.5805038061
 20
2.3665509652
 30
0.0
 11
-2.0546549479
 21
-0.7154314566
 31
0.0
 12
-1.1063526643
 22
-0.7154314566
 32
0.0
 13
-1.1063526643
 23
-0.7154314566
 33
0.0
  0
LINE
  5
BD
330
B9
100
AcDbEntity
  8
EBENE_1
 62
     0
100
AcDbLine
 10
-10.3062660664
 20
2.3665509652
 30
0.0
 11
0.0
 21
2.3665509652
 31
0.0
  0
LINE
  5
BE
330
B9
100
AcDbEntity
  8
EBENE_1
 62
     0
100
AcDbLine
 10
-1.5805038061
 20
-7.6334490348
 30
0.0
 11
-1.5805038061
 21
2.3665509652
 31
0.0
  0
MTEXT
  5
BF
330
B9
100
AcDbEntity
  8
EBENE_1
 62
     0
100
AcDbMText
 10
0.0
 20
4.0927900738
 30
0.0
 40
3.175
 41
0.0
 71
     1
 72
     1
  1
50
  7
SLDTEXTSTYLE0
 73
     1
 44
1.0
  0
ENDBLK
  5
BB
330
B9
100
AcDbEntity
  8
0
100
AcDbBlockEnd
  0
BLOCK
  5
C2
330
C1
100
AcDbEntity
  8
0
100
AcDbBlockBegin
  2
SW_BLOCK_DIMENSION_6
 70
     0
 10
0.0
 20
0.0
 30
0.0
  3
SW_BLOCK_DIMENSION_6
  1

  0
SOLID
  5
C4
330
C1
100
AcDbEntity
  8
EBENE_1
 62
     0
100
AcDbTrace
 10
-1.5805038061
 20
2.3665509652
 30
0.0
 11
-2.0546549479
 21
-0.7154314566
 31
0.0
 12
-1.1063526643
 22
-0.7154314566
 32
0.0
 13
-1.1063526643
 23
-0.7154314566
 33
0.0
  0
LINE
  5
C5
330
C1
100
AcDbEntity
  8
EBENE_1
 62
     0
100
AcDbLine
 10
-10.3062660664
 20
2.3665509652
 30
0.0
 11
0.0
 21
2.3665509652
 31
0.0
  0
LINE
  5
C6
330
C1
100
AcDbEntity
  8
EBENE_1
 62
     0
100
AcDbLine
 10
-1.5805038061
 20
-7.6334490348
 30
0.0
 11
-1.5805038061
 21
2.3665509652
 31
0.0
  0
MTEXT
  5
C7
330
C1
100
AcDbEntity
  8
EBENE_1
 62
     0
100
AcDbMText
 10
0.0
 20
4.0927900738
 30
0.0
 40
3.175
 41
0.0
 71
     1
 72
     1
  1
60
  7
SLDTEXTSTYLE0
 73
     1
 44
1.0
  0
ENDBLK
  5
C3
330
C1
100
AcDbEntity
  8
0
100
AcDbBlockEnd
  0
BLOCK
  5
CA
330
C9
100
AcDbEntity
  8
0
100
AcDbBlockBegin
  2
SW_BLOCK_DIMENSION_7
 70
     0
 10
0.0
 20
0.0
 30
0.0
  3
SW_BLOCK_DIMENSION_7
  1

  0
SOLID
  5
CC
330
C9
100
AcDbEntity
  8
EBENE_1
 62
     0
100
AcDbTrace
 10
-1.5805038061
 20
2.3665509652
 30
0.0
 11
-2.0546549479
 21
-0.7154314566
 31
0.0
 12
-1.1063526643
 22
-0.7154314566
 32
0.0
 13
-1.1063526643
 23
-0.7154314566
 33
0.0
  0
LINE
  5
CD
330
C9
100
AcDbEntity
  8
EBENE_1
 62
     0
100
AcDbLine
 10
-10.3062660664
 20
2.3665509652
 30
0.0
 11
0.0
 21
2.3665509652
 31
0.0
  0
LINE
  5
CE
330
C9
100
AcDbEntity
  8
EBENE_1
 62
     0
100
AcDbLine
 10
-1.5805038061
 20
-7.6334490348
 30
0.0
 11
-1.5805038061
 21
2.3665509652
 31
0.0
  0
MTEXT
  5
CF
330
C9
100
AcDbEntity
  8
EBENE_1
 62
     0
100
AcDbMText
 10
0.0
 20
4.0927900738
 30
0.0
 40
3.175
 41
0.0
 71
     1
 72
     1
  1
70
  7
SLDTEXTSTYLE0
 73
     1
 44
1.0
  0
ENDBLK
  5
CB
330
C9
100
AcDbEntity
  8
0
100
AcDbBlockEnd
  0
BLOCK
  5
D2
330
D1
100
AcDbEntity
  8
0
100
AcDbBlockBegin
  2
SW_BLOCK_DIMENSION_8
 70
     0
 10
0.0
 20
0.0
 30
0.0
  3
SW_BLOCK_DIMENSION_8
  1

  0
SOLID
  5
D4
330
D1
100
AcDbEntity
  8
EBENE_1
 62
     0
100
AcDbTrace
 10
-1.5805038061
 20
2.3665509652
 30
0.0
 11
-2.0546549479
 21
-0.7154314566
 31
0.0
 12
-1.1063526643
 22
-0.7154314566
 32
0.0
 13
-1.1063526643
 23
-0.7154314566
 33
0.0
  0
LINE
  5
D5
330
D1
100
AcDbEntity
  8
EBENE_1
 62
     0
100
AcDbLine
 10
-10.3062660664
 20
2.3665509652
 30
0.0
 11
0.0
 21
2.3665509652
 31
0.0
  0
LINE
  5
D6
330
D1
100
AcDbEntity
  8
EBENE_1
 62
     0
100
AcDbLine
 10
-1.5805038061
 20
-7.6334490348
 30
0.0
 11
-1.5805038061
 21
2.3665509652
 31
0.0
  0
MTEXT
  5
D7
330
D1
100
AcDbEntity
  8
EBENE_1
 62
     0
100
AcDbMText
 10
0.0
 20
4.0927900738
 30
0.0
 40
3.175
 41
0.0
 71
     1
 72
     1
  1
80
  7
SLDTEXTSTYLE0
 73
     1
 44
1.0
  0
ENDBLK
  5
D3
330
D1
100
AcDbEntity
  8
0
100
AcDbBlockEnd
  0
BLOCK
  5
DA
330
D9
100
AcDbEntity
  8
0
100
AcDbBlockBegin
  2
SW_BLOCK_DIMENSION_9
 70
     0
 10
0.0
 20
0.0
 30
0.0
  3
SW_BLOCK_DIMENSION_9
  1

  0
SOLID
  5
DC
330
D9
100
AcDbEntity
  8
EBENE_1
 62
     0
100
AcDbTrace
 10
-1.5805038061
 20
2.3665509652
 30
0.0
 11
-2.0546549479
 21
-0.7154314566
 31
0.0
 12
-1.1063526643
 22
-0.7154314566
 32
0.0
 13
-1.1063526643
 23
-0.7154314566
 33
0.0
  0
LINE
  5
DD
330
D9
100
AcDbEntity
  8
EBENE_1
 62
     0
100
AcDbLine
 10
-10.3062660664
 20
2.3665509652
 30
0.0
 11
0.0
 21
2.3665509652
 31
0.0
  0
LINE
  5
DE
330
D9
100
AcDbEntity
  8
EBENE_1
 62
     0
100
AcDbLine
 10
-1.5805038061
 20
-7.6334490348
 30
0.0
 11
-1.5805038061
 21
2.3665509652
 31
0.0
  0
MTEXT
  5
DF
330
D9
100
AcDbEntity
  8
EBENE_1
 62
     0
100
AcDbMText
 10
0.0
 20
4.0927900738
 30
0.0
 40
3.175
 41
0.0
 71
     1
 72
     1
  1
90
  7
SLDTEXTSTYLE0
 73
     1
 44
1.0
  0
ENDBLK
  5
DB
330
D9
100
AcDbEntity
  8
0
100
AcDbBlockEnd
  0
BLOCK
  5
E2
330
E1
100
AcDbEntity
  8
0
100
AcDbBlockBegin
  2
SW_BLOCK_DIMENSION_10
 70
     0
 10
0.0
 20
0.0
 30
0.0
  3
SW_BLOCK_DIMENSION_10
  1

  0
SOLID
  5
E4
330
E1
100
AcDbEntity
  8
EBENE_1
 62
     0
100
AcDbTrace
 10
-1.5805038061
 20
2.3665509652
 30
0.0
 11
-2.0546549479
 21
-0.7154314566
 31
0.0
 12
-1.1063526643
 22
-0.7154314566
 32
0.0
 13
-1.1063526643
 23
-0.7154314566
 33
0.0
  0
LINE
  5
E5
330
E1
100
AcDbEntity
  8
EBENE_1
 62
     0
100
AcDbLine
 10
-10.3062660664
 20
2.3665509652
 30
0.0
 11
0.0
 21
2.3665509652
 31
0.0
  0
LINE
  5
E6
330
E1
100
AcDbEntity
  8
EBENE_1
 62
     0
100
AcDbLine
 10
-1.5805038061
 20
-7.6334490348
 30
0.0
 11
-1.5805038061
 21
2.3665509652
 31
0.0
  0
MTEXT
  5
E7
330
E1
100
AcDbEntity
  8
EBENE_1
 62
     0
100
AcDbMText
 10
0.0
 20
4.0927900738
 30
0.0
 40
3.175
 41
0.0
 71
     1
 72
     1
  1
100
  7
SLDTEXTSTYLE0
 73
     1
 44
1.0
  0
ENDBLK
  5
E3
330
E1
100
AcDbEntity
  8
0
100
AcDbBlockEnd
  0
BLOCK
  5
EA
330
E9
100
AcDbEntity
  8
0
100
AcDbBlockBegin
  2
SW_BLOCK_DIMENSION_11
 70
     0
 10
0.0
 20
0.0
 30
0.0
  3
SW_BLOCK_DIMENSION_11
  1

  0
SOLID
  5
EC
330
E9
100
AcDbEntity
  8
EBENE_1
 62
     0
100
AcDbTrace
 10
-1.5805038061
 20
2.3665509652
 30
0.0
 11
-2.0546549479
 21
-0.7154314566
 31
0.0
 12
-1.1063526643
 22
-0.7154314566
 32
0.0
 13
-1.1063526643
 23
-0.7154314566
 33
0.0
  0
LINE
  5
ED
330
E9
100
AcDbEntity
  8
EBENE_1
 62
     0
100
AcDbLine
 10
-10.3062660664
 20
2.3665509652
 30
0.0
 11
0.0
 21
2.3665509652
 31
0.0
  0
LINE
  5
EE
330
E9
100
AcDbEntity
  8
EBENE_1
 62
     0
100
AcDbLine
 10
-1.5805038061
 20
-7.6334490348
 30
0.0
 11
-1.5805038061
 21
2.3665509652
 31
0.0
  0
MTEXT
  5
EF
330
E9
100
AcDbEntity
  8
EBENE_1
 62
     0
100
AcDbMText
 10
0.0
 20
4.0927900738
 30
0.0
 40
3.175
 41
0.0
 71
     1
 72
     1
  1
110
  7
SLDTEXTSTYLE0
 73
     1
 44
1.0
  0
ENDBLK
  5
EB
330
E9
100
AcDbEntity
  8
0
100
AcDbBlockEnd
  0
BLOCK
  5
F2
330
F1
100
AcDbEntity
  8
0
100
AcDbBlockBegin
  2
SW_BLOCK_DIMENSION_12
 70
     0
 10
0.0
 20
0.0
 30
0.0
  3
SW_BLOCK_DIMENSION_12
  1

  0
SOLID
  5
F4
330
F1
100
AcDbEntity
  8
EBENE_1
 62
     0
100
AcDbTrace
 10
-1.5805038061
 20
2.3665509652
 30
0.0
 11
-2.0546549479
 21
-0.7154314566
 31
0.0
 12
-1.1063526643
 22
-0.7154314566
 32
0.0
 13
-1.1063526643
 23
-0.7154314566
 33
0.0
  0
LINE
  5
F5
330
F1
100
AcDbEntity
  8
EBENE_1
 62
     0
100
AcDbLine
 10
-10.3062660664
 20
2.3665509652
 30
0.0
 11
0.0
 21
2.3665509652
 31
0.0
  0
LINE
  5
F6
330
F1
100
AcDbEntity
  8
EBENE_1
 62
     0
100
AcDbLine
 10
-1.5805038061
 20
-7.6334490348
 30
0.0
 11
-1.5805038061
 21
2.3665509652
 31
0.0
  0
MTEXT
  5
F7
330
F1
100
AcDbEntity
  8
EBENE_1
 62
     0
100
AcDbMText
 10
0.0
 20
4.0927900738
 30
0.0
 40
3.175
 41
0.0
 71
     1
 72
     1
  1
120
  7
SLDTEXTSTYLE0
 73
     1
 44
1.0
  0
ENDBLK
  5
F3
330
F1
100
AcDbEntity
  8
0
100
AcDbBlockEnd
  0
BLOCK
  5
FA
330
F9
100
AcDbEntity
  8
0
100
AcDbBlockBegin
  2
SW_BLOCK_DIMENSION_13
 70
     0
 10
0.0
 20
0.0
 30
0.0
  3
SW_BLOCK_DIMENSION_13
  1

  0
SOLID
  5
FC
330
F9
100
AcDbEntity
  8
EBENE_1
 62
     0
100
AcDbTrace
 10
-1.5805038061
 20
2.3665509652
 30
0.0
 11
-2.0546549479
 21
-0.7154314566
 31
0.0
 12
-1.1063526643
 22
-0.7154314566
 32
0.0
 13
-1.1063526643
 23
-0.7154314566
 33
0.0
  0
LINE
  5
FD
330
F9
100
AcDbEntity
  8
EBENE_1
 62
     0
100
AcDbLine
 10
-10.3062660664
 20
2.3665509652
 30
0.0
 11
0.0
 21
2.3665509652
 31
0.0
  0
LINE
  5
FE
330
F9
100
AcDbEntity
  8
EBENE_1
 62
     0
100
AcDbLine
 10
-1.5805038061
 20
-7.6334490348
 30
0.0
 11
-1.5805038061
 21
2.3665509652
 31
0.0
  0
MTEXT
  5
FF
330
F9
100
AcDbEntity
  8
EBENE_1
 62
     0
100
AcDbMText
 10
0.0
 20
4.0927900738
 30
0.0
 40
3.175
 41
0.0
 71
     1
 72
     1
  1
130
  7
SLDTEXTSTYLE0
 73
     1
 44
1.0
  0
ENDBLK
  5
FB
330
F9
100
AcDbEntity
  8
0
100
AcDbBlockEnd
  0
BLOCK
  5
102
330
101
100
AcDbEntity
  8
0
100
AcDbBlockBegin
  2
SW_BLOCK_DIMENSION_14
 70
     0
 10
0.0
 20
0.0
 30
0.0
  3
SW_BLOCK_DIMENSION_14
  1

  0
INSERT
  5
104
330
101
100
AcDbEntity
  8
EBENE_1
 62
     0
100
AcDbBlockReference
  2
_ORIGIN
 10
16.3971707594
 20
5.1887726877
 30
0.0
 41
0.9483022837
 42
0.9483022837
 50
0.0
  0
LINE
  5
105
330
101
100
AcDbEntity
  8
EBENE_1
 62
     0
100
AcDbLine
 10
3.2925925916
 20
9.671990294
 30
0.0
 11
2.2342592711
 21
9.671990294
 31
0.0
  0
LINE
  5
106
330
101
100
AcDbEntity
  8
EBENE_1
 62
     0
100
AcDbLine
 10
2.2342592711
 20
9.671990294
 30
0.0
 11
2.2342592711
 21
4.9388883635
 31
0.0
  0
LINE
  5
107
330
101
100
AcDbEntity
  8
EBENE_1
 62
     0
100
AcDbLine
 10
2.2342592711
 20
4.9388883635
 30
0.0
 11
3.2925925916
 21
4.9388883635
 31
0.0
  0
LINE
  5
108
330
101
100
AcDbEntity
  8
EBENE_1
 62
     0
100
AcDbLine
 10
11.5240741288
 20
9.671990294
 30
0.0
 11
12.5824074494
 21
9.671990294
 31
0.0
  0
LINE
  5
109
330
101
100
AcDbEntity
  8
EBENE_1
 62
     0
100
AcDbLine
 10
12.5824074494
 20
9.671990294
 30
0.0
 11
12.5824074494
 21
4.9388883635
 31
0.0
  0
LINE
  5
10A
330
101
100
AcDbEntity
  8
EBENE_1
 62
     0
100
AcDbLine
 10
12.5824074494
 20
4.9388883635
 30
0.0
 11
11.5240741288
 21
4.9388883635
 31
0.0
  0
LINE
  5
10B
330
101
100
AcDbEntity
  8
EBENE_1
 62
     0
100
AcDbLine
 10
24.38463321
 20
5.1887726877
 30
0.0
 11
14.8166669533
 21
5.1887726877
 31
0.0
  0
MTEXT
  5
10C
330
101
100
AcDbEntity
  8
EBENE_1
 62
     0
100
AcDbMText
 10
1.190625
 20
4.0927900738
 30
0.0
 40
3.175
 41
0.0
 71
     1
 72
     1
  1

  7
SLDTEXTSTYLE0
 73
     1
 44
1.0
  0
MTEXT
  5
10D
330
101
100
AcDbEntity
  8
EBENE_1
 62
     0
100
AcDbMText
 10
3.2925925916
 20
9.0316784373
 30
0.0
 40
3.175
 41
0.0
 71
     1
 72
     1
  1
0,00
  7
SLDTEXTSTYLE0
 73
     1
 44
1.0
  0
MTEXT
  5
10E
330
101
100
AcDbEntity
  8
EBENE_1
 62
     0
100
AcDbMText
 10
6.2324074097
 20
4.0927898409
 30
0.0
 40
3.175
 41
0.0
 71
     1
 72
     1
  1
0
  7
SLDTEXTSTYLE0
 73
     1
 44
1.0
  0
MTEXT
  5
10F
330
101
100
AcDbEntity
  8
EBENE_1
 62
     0
100
AcDbMText
 10
14.8313658863
 20
4.0927900738
 30
0.0
 40
3.175
 41
0.0
 71
     1
 72
     1
  1

  7
SLDTEXTSTYLE0
 73
     1
 44
1.0
  0
ENDBLK
  5
103
330
101
100
AcDbEntity
  8
0
100
AcDbBlockEnd
  0
BLOCK
  5
112
330
111
100
AcDbEntity
  8
0
100
AcDbBlockBegin
  2
SW_BLOCK_DIMENSION_15
 70
     0
 10
0.0
 20
0.0
 30
0.0
  3
SW_BLOCK_DIMENSION_15
  1

  0
SOLID
  5
114
330
111
100
AcDbEntity
  8
EBENE_1
 62
     0
100
AcDbTrace
 10
16.3971707594
 20
5.1887726877
 30
0.0
 11
15.9230196175
 21
2.1067902658
 31
0.0
 12
16.8713219012
 22
2.1067902658
 32
0.0
 13
16.8713219012
 23
2.1067902658
 33
0.0
  0
LINE
  5
115
330
111
100
AcDbEntity
  8
EBENE_1
 62
     0
100
AcDbLine
 10
3.2925925916
 20
9.671990294
 30
0.0
 11
2.2342592711
 21
9.671990294
 31
0.0
  0
LINE
  5
116
330
111
100
AcDbEntity
  8
EBENE_1
 62
     0
100
AcDbLine
 10
2.2342592711
 20
9.671990294
 30
0.0
 11
2.2342592711
 21
4.9388883635
 31
0.0
  0
LINE
  5
117
330
111
100
AcDbEntity
  8
EBENE_1
 62
     0
100
AcDbLine
 10
2.2342592711
 20
4.9388883635
 30
0.0
 11
3.2925925916
 21
4.9388883635
 31
0.0
  0
LINE
  5
118
330
111
100
AcDbEntity
  8
EBENE_1
 62
     0
100
AcDbLine
 10
11.5240741288
 20
9.671990294
 30
0.0
 11
12.5824074494
 21
9.671990294
 31
0.0
  0
LINE
  5
119
330
111
100
AcDbEntity
  8
EBENE_1
 62
     0
100
AcDbLine
 10
12.5824074494
 20
9.671990294
 30
0.0
 11
12.5824074494
 21
4.9388883635
 31
0.0
  0
LINE
  5
11A
330
111
100
AcDbEntity
  8
EBENE_1
 62
     0
100
AcDbLine
 10
12.5824074494
 20
4.9388883635
 30
0.0
 11
11.5240741288
 21
4.9388883635
 31
0.0
  0
LINE
  5
11B
330
111
100
AcDbEntity
  8
EBENE_1
 62
     0
100
AcDbLine
 10
23.60463321
 20
5.1887726877
 30
0.0
 11
14.8166669533
 21
5.1887726877
 31
0.0
  0
LINE
  5
11C
330
111
100
AcDbEntity
  8
EBENE_1
 62
     0
100
AcDbLine
 10
16.3971707594
 20
-20.2112273123
 30
0.0
 11
16.3971707594
 21
5.1887726877
 31
0.0
  0
MTEXT
  5
11D
330
111
100
AcDbEntity
  8
EBENE_1
 62
     0
100
AcDbMText
 10
1.190625
 20
4.0927900738
 30
0.0
 40
3.175
 41
0.0
 71
     1
 72
     1
  1

  7
SLDTEXTSTYLE0
 73
     1
 44
1.0
  0
MTEXT
  5
11E
330
111
100
AcDbEntity
  8
EBENE_1
 62
     0
100
AcDbMText
 10
3.2925925916
 20
9.0316784373
 30
0.0
 40
3.175
 41
0.0
 71
     1
 72
     1
  1
1,00
  7
SLDTEXTSTYLE0
 73
     1
 44
1.0
  0
MTEXT
  5
11F
330
111
100
AcDbEntity
  8
EBENE_1
 62
     0
100
AcDbMText
 10
2.1166665247
 20
4.0927898409
 30
0.0
 40
3.175
 41
0.0
 71
     1
 72
     1
  1
25,40
  7
SLDTEXTSTYLE0
 73
     1
 44
1.0
  0
MTEXT
  5
120
330
111
100
AcDbEntity
  8
EBENE_1
 62
     0
100
AcDbMText
 10
14.8313658863
 20
4.0927900738
 30
0.0
 40
3.175
 41
0.0
 71
     1
 72
     1
  1

  7
SLDTEXTSTYLE0
 73
     1
 44
1.0
  0
ENDBLK
  5
113
330
111
100
AcDbEntity
  8
0
100
AcDbBlockEnd
  0
BLOCK
  5
123
330
122
100
AcDbEntity
  8
0
100
AcDbBlockBegin
  2
SW_BLOCK_DIMENSION_16
 70
     0
 10
0.0
 20
0.0
 30
0.0
  3
SW_BLOCK_DIMENSION_16
  1

  0
SOLID
  5
125
330
122
100
AcDbEntity
  8
EBENE_1
 62
     0
100
AcDbTrace
 10
16.3971707594
 20
5.1887726877
 30
0.0
 11
15.9230196175
 21
2.1067902658
 31
0.0
 12
16.8713219012
 22
2.1067902658
 32
0.0
 13
16.8713219012
 23
2.1067902658
 33
0.0
  0
LINE
  5
126
330
122
100
AcDbEntity
  8
EBENE_1
 62
     0
100
AcDbLine
 10
3.2925925916
 20
9.671990294
 30
0.0
 11
2.2342592711
 21
9.671990294
 31
0.0
  0
LINE
  5
127
330
122
100
AcDbEntity
  8
EBENE_1
 62
     0
100
AcDbLine
 10
2.2342592711
 20
9.671990294
 30
0.0
 11
2.2342592711
 21
4.9388883635
 31
0.0
  0
LINE
  5
128
330
122
100
AcDbEntity
  8
EBENE_1
 62
     0
100
AcDbLine
 10
2.2342592711
 20
4.9388883635
 30
0.0
 11
3.2925925916
 21
4.9388883635
 31
0.0
  0
LINE
  5
129
330
122
100
AcDbEntity
  8
EBENE_1
 62
     0
100
AcDbLine
 10
11.5240741288
 20
9.671990294
 30
0.0
 11
12.5824074494
 21
9.671990294
 31
0.0
  0
LINE
  5
12A
330
122
100
AcDbEntity
  8
EBENE_1
 62
     0
100
AcDbLine
 10
12.5824074494
 20
9.671990294
 30
0.0
 11
12.5824074494
 21
4.9388883635
 31
0.0
  0
LINE
  5
12B
330
122
100
AcDbEntity
  8
EBENE_1
 62
     0
100
AcDbLine
 10
12.5824074494
 20
4.9388883635
 30
0.0
 11
11.5240741288
 21
4.9388883635
 31
0.0
  0
LINE
  5
12C
330
122
100
AcDbEntity
  8
EBENE_1
 62
     0
100
AcDbLine
 10
23.60463321
 20
5.1887726877
 30
0.0
 11
14.8166669533
 21
5.1887726877
 31
0.0
  0
LINE
  5
12D
330
122
100
AcDbEntity
  8
EBENE_1
 62
     0
100
AcDbLine
 10
16.3971707594
 20
-20.2112273123
 30
0.0
 11
16.3971707594
 21
5.1887726877
 31
0.0
  0
MTEXT
  5
12E
330
122
100
AcDbEntity
  8
EBENE_1
 62
     0
100
AcDbMText
 10
1.190625
 20
4.0927900738
 30
0.0
 40
3.175
 41
0.0
 71
     1
 72
     1
  1

  7
SLDTEXTSTYLE0
 73
     1
 44
1.0
  0
MTEXT
  5
12F
330
122
100
AcDbEntity
  8
EBENE_1
 62
     0
100
AcDbMText
 10
3.2925925916
 20
9.0316784373
 30
0.0
 40
3.175
 41
0.0
 71
     1
 72
     1
  1
2,00
  7
SLDTEXTSTYLE0
 73
     1
 44
1.0
  0
MTEXT
  5
130
330
122
100
AcDbEntity
  8
EBENE_1
 62
     0
100
AcDbMText
 10
2.1166665247
 20
4.0927898409
 30
0.0
 40
3.175
 41
0.0
 71
     1
 72
     1
  1
50,80
  7
SLDTEXTSTYLE0
 73
     1
 44
1.0
  0
MTEXT
  5
131
330
122
100
AcDbEntity
  8
EBENE_1
 62
     0
100
AcDbMText
 10
14.8313658863
 20
4.0927900738
 30
0.0
 40
3.175
 41
0.0
 71
     1
 72
     1
  1

  7
SLDTEXTSTYLE0
 73
     1
 44
1.0
  0
ENDBLK
  5
124
330
122
100
AcDbEntity
  8
0
100
AcDbBlockEnd
  0
BLOCK
  5
134
330
133
100
AcDbEntity
  8
0
100
AcDbBlockBegin
  2
SW_BLOCK_DIMENSION_17
 70
     0
 10
0.0
 20
0.0
 30
0.0
  3
SW_BLOCK_DIMENSION_17
  1

  0
SOLID
  5
136
330
133
100
AcDbEntity
  8
EBENE_1
 62
     0
100
AcDbTrace
 10
16.3971707594
 20
5.1887726877
 30
0.0
 11
15.9230196175
 21
2.1067902658
 31
0.0
 12
16.8713219012
 22
2.1067902658
 32
0.0
 13
16.8713219012
 23
2.1067902658
 33
0.0
  0
LINE
  5
137
330
133
100
AcDbEntity
  8
EBENE_1
 62
     0
100
AcDbLine
 10
3.2925925916
 20
9.671990294
 30
0.0
 11
2.2342592711
 21
9.671990294
 31
0.0
  0
LINE
  5
138
330
133
100
AcDbEntity
  8
EBENE_1
 62
     0
100
AcDbLine
 10
2.2342592711
 20
9.671990294
 30
0.0
 11
2.2342592711
 21
4.9388883635
 31
0.0
  0
LINE
  5
139
330
133
100
AcDbEntity
  8
EBENE_1
 62
     0
100
AcDbLine
 10
2.2342592711
 20
4.9388883635
 30
0.0
 11
3.2925925916
 21
4.9388883635
 31
0.0
  0
LINE
  5
13A
330
133
100
AcDbEntity
  8
EBENE_1
 62
     0
100
AcDbLine
 10
11.5240741288
 20
9.671990294
 30
0.0
 11
12.5824074494
 21
9.671990294
 31
0.0
  0
LINE
  5
13B
330
133
100
AcDbEntity
  8
EBENE_1
 62
     0
100
AcDbLine
 10
12.5824074494
 20
9.671990294
 30
0.0
 11
12.5824074494
 21
4.9388883635
 31
0.0
  0
LINE
  5
13C
330
133
100
AcDbEntity
  8
EBENE_1
 62
     0
100
AcDbLine
 10
12.5824074494
 20
4.9388883635
 30
0.0
 11
11.5240741288
 21
4.9388883635
 31
0.0
  0
LINE
  5
13D
330
133
100
AcDbEntity
  8
EBENE_1
 62
     0
100
AcDbLine
 10
23.60463321
 20
5.1887726877
 30
0.0
 11
14.8166669533
 21
5.1887726877
 31
0.0
  0
LINE
  5
13E
330
133
100
AcDbEntity
  8
EBENE_1
 62
     0
100
AcDbLine
 10
16.3971707594
 20
-20.2112273123
 30
0.0
 11
16.3971707594
 21
5.1887726877
 31
0.0
  0
MTEXT
  5
13F
330
133
100
AcDbEntity
  8
EBENE_1
 62
     0
100
AcDbMText
 10
1.190625
 20
4.0927900738
 30
0.0
 40
3.175
 41
0.0
 71
     1
 72
     1
  1

  7
SLDTEXTSTYLE0
 73
     1
 44
1.0
  0
MTEXT
  5
140
330
133
100
AcDbEntity
  8
EBENE_1
 62
     0
100
AcDbMText
 10
3.2925925916
 20
9.0316784373
 30
0.0
 40
3.175
 41
0.0
 71
     1
 72
     1
  1
3,00
  7
SLDTEXTSTYLE0
 73
     1
 44
1.0
  0
MTEXT
  5
141
330
133
100
AcDbEntity
  8
EBENE_1
 62
     0
100
AcDbMText
 10
2.1166665247
 20
4.0927898409
 30
0.0
 40
3.175
 41
0.0
 71
     1
 72
     1
  1
76,20
  7
SLDTEXTSTYLE0
 73
     1
 44
1.0
  0
MTEXT
  5
142
330
133
100
AcDbEntity
  8
EBENE_1
 62
     0
100
AcDbMText
 10
14.8313658863
 20
4.0927900738
 30
0.0
 40
3.175
 41
0.0
 71
     1
 72
     1
  1

  7
SLDTEXTSTYLE0
 73
     1
 44
1.0
  0
ENDBLK
  5
135
330
133
100
AcDbEntity
  8
0
100
AcDbBlockEnd
  0
BLOCK
  5
145
330
144
100
AcDbEntity
  8
0
100
AcDbBlockBegin
  2
SW_BLOCK_DIMENSION_18
 70
     0
 10
0.0
 20
0.0
 30
0.0
  3
SW_BLOCK_DIMENSION_18
  1

  0
SOLID
  5
147
330
144
100
AcDbEntity
  8
EBENE_1
 62
     0
100
AcDbTrace
 10
16.8675417449
 20
5.1887726877
 30
0.0
 11
16.3933906031
 21
2.1067902658
 31
0.0
 12
17.3416928868
 22
2.1067902658
 32
0.0
 13
17.3416928868
 23
2.1067902658
 33
0.0
  0
LINE
  5
148
330
144
100
AcDbEntity
  8
EBENE_1
 62
     0
100
AcDbLine
 10
3.5277780844
 20
9.671990294
 30
0.0
 11
2.4694447638
 21
9.671990294
 31
0.0
  0
LINE
  5
149
330
144
100
AcDbEntity
  8
EBENE_1
 62
     0
100
AcDbLine
 10
2.4694447638
 20
9.671990294
 30
0.0
 11
2.4694447638
 21
4.9388883635
 31
0.0
  0
LINE
  5
14A
330
144
100
AcDbEntity
  8
EBENE_1
 62
     0
100
AcDbLine
 10
2.4694447638
 20
4.9388883635
 30
0.0
 11
3.5277780844
 21
4.9388883635
 31
0.0
  0
LINE
  5
14B
330
144
100
AcDbEntity
  8
EBENE_1
 62
     0
100
AcDbLine
 10
11.7592596216
 20
9.671990294
 30
0.0
 11
12.8175929422
 21
9.671990294
 31
0.0
  0
LINE
  5
14C
330
144
100
AcDbEntity
  8
EBENE_1
 62
     0
100
AcDbLine
 10
12.8175929422
 20
9.671990294
 30
0.0
 11
12.8175929422
 21
4.9388883635
 31
0.0
  0
LINE
  5
14D
330
144
100
AcDbEntity
  8
EBENE_1
 62
     0
100
AcDbLine
 10
12.8175929422
 20
4.9388883635
 30
0.0
 11
11.7592596216
 21
4.9388883635
 31
0.0
  0
LINE
  5
14E
330
144
100
AcDbEntity
  8
EBENE_1
 62
     0
100
AcDbLine
 10
24.0750041956
 20
5.1887726877
 30
0.0
 11
15.2870379388
 21
5.1887726877
 31
0.0
  0
LINE
  5
14F
330
144
100
AcDbEntity
  8
EBENE_1
 62
     0
100
AcDbLine
 10
16.8675417449
 20
-20.2112273123
 30
0.0
 11
16.8675417449
 21
5.1887726877
 31
0.0
  0
MTEXT
  5
150
330
144
100
AcDbEntity
  8
EBENE_1
 62
     0
100
AcDbMText
 10
1.190625
 20
4.0927900738
 30
0.0
 40
3.175
 41
0.0
 71
     1
 72
     1
  1

  7
SLDTEXTSTYLE0
 73
     1
 44
1.0
  0
MTEXT
  5
151
330
144
100
AcDbEntity
  8
EBENE_1
 62
     0
100
AcDbMText
 10
3.5277780844
 20
9.0316784373
 30
0.0
 40
3.175
 41
0.0
 71
     1
 72
     1
  1
4,00
  7
SLDTEXTSTYLE0
 73
     1
 44
1.0
  0
MTEXT
  5
152
330
144
100
AcDbEntity
  8
EBENE_1
 62
     0
100
AcDbMText
 10
1.1759259505
 20
4.0927898409
 30
0.0
 40
3.175
 41
0.0
 71
     1
 72
     1
  1
101,60
  7
SLDTEXTSTYLE0
 73
     1
 44
1.0
  0
MTEXT
  5
153
330
144
100
AcDbEntity
  8
EBENE_1
 62
     0
100
AcDbMText
 10
15.3017368719
 20
4.0927900738
 30
0.0
 40
3.175
 41
0.0
 71
     1
 72
     1
  1

  7
SLDTEXTSTYLE0
 73
     1
 44
1.0
  0
ENDBLK
  5
146
330
144
100
AcDbEntity
  8
0
100
AcDbBlockEnd
  0
BLOCK
  5
156
330
155
100
AcDbEntity
  8
0
100
AcDbBlockBegin
  2
SW_BLOCK_DIMENSION_19
 70
     0
 10
0.0
 20
0.0
 30
0.0
  3
SW_BLOCK_DIMENSION_19
  1

  0
SOLID
  5
158
330
155
100
AcDbEntity
  8
EBENE_1
 62
     0
100
AcDbTrace
 10
16.3971707594
 20
5.1887726877
 30
0.0
 11
15.9230196175
 21
2.1067902658
 31
0.0
 12
16.8713219012
 22
2.1067902658
 32
0.0
 13
16.8713219012
 23
2.1067902658
 33
0.0
  0
LINE
  5
159
330
155
100
AcDbEntity
  8
EBENE_1
 62
     0
100
AcDbLine
 10
3.2925925916
 20
9.671990294
 30
0.0
 11
2.2342592711
 21
9.671990294
 31
0.0
  0
LINE
  5
15A
330
155
100
AcDbEntity
  8
EBENE_1
 62
     0
100
AcDbLine
 10
2.2342592711
 20
9.671990294
 30
0.0
 11
2.2342592711
 21
4.9388883635
 31
0.0
  0
LINE
  5
15B
330
155
100
AcDbEntity
  8
EBENE_1
 62
     0
100
AcDbLine
 10
2.2342592711
 20
4.9388883635
 30
0.0
 11
3.2925925916
 21
4.9388883635
 31
0.0
  0
LINE
  5
15C
330
155
100
AcDbEntity
  8
EBENE_1
 62
     0
100
AcDbLine
 10
11.5240741288
 20
9.671990294
 30
0.0
 11
12.5824074494
 21
9.671990294
 31
0.0
  0
LINE
  5
15D
330
155
100
AcDbEntity
  8
EBENE_1
 62
     0
100
AcDbLine
 10
12.5824074494
 20
9.671990294
 30
0.0
 11
12.5824074494
 21
4.9388883635
 31
0.0
  0
LINE
  5
15E
330
155
100
AcDbEntity
  8
EBENE_1
 62
     0
100
AcDbLine
 10
12.5824074494
 20
4.9388883635
 30
0.0
 11
11.5240741288
 21
4.9388883635
 31
0.0
  0
LINE
  5
15F
330
155
100
AcDbEntity
  8
EBENE_1
 62
     0
100
AcDbLine
 10
23.60463321
 20
5.1887726877
 30
0.0
 11
14.8166669533
 21
5.1887726877
 31
0.0
  0
LINE
  5
160
330
155
100
AcDbEntity
  8
EBENE_1
 62
     0
100
AcDbLine
 10
16.3971707594
 20
-20.2112273123
 30
0.0
 11
16.3971707594
 21
5.1887726877
 31
0.0
  0
MTEXT
  5
161
330
155
100
AcDbEntity
  8
EBENE_1
 62
     0
100
AcDbMText
 10
1.190625
 20
4.0927900738
 30
0.0
 40
3.175
 41
0.0
 71
     1
 72
     1
  1

  7
SLDTEXTSTYLE0
 73
     1
 44
1.0
  0
MTEXT
  5
162
330
155
100
AcDbEntity
  8
EBENE_1
 62
     0
100
AcDbMText
 10
3.2925925916
 20
9.0316784373
 30
0.0
 40
3.175
 41
0.0
 71
     1
 72
     1
  1
5,00
  7
SLDTEXTSTYLE0
 73
     1
 44
1.0
  0
MTEXT
  5
163
330
155
100
AcDbEntity
  8
EBENE_1
 62
     0
100
AcDbMText
 10
3.8805556251
 20
4.0927898409
 30
0.0
 40
3.175
 41
0.0
 71
     1
 72
     1
  1
127
  7
SLDTEXTSTYLE0
 73
     1
 44
1.0
  0
MTEXT
  5
164
330
155
100
AcDbEntity
  8
EBENE_1
 62
     0
100
AcDbMText
 10
14.8313658863
 20
4.0927900738
 30
0.0
 40
3.175
 41
0.0
 71
     1
 72
     1
  1

  7
SLDTEXTSTYLE0
 73
     1
 44
1.0
  0
ENDBLK
  5
157
330
155
100
AcDbEntity
  8
0
100
AcDbBlockEnd
  0
BLOCK
  5
167
330
166
100
AcDbEntity
  8
0
100
AcDbBlockBegin
  2
SW_NOTE_0
 70
     0
 10
0.0
 20
0.0
 30
0.0
  3
SW_NOTE_0
  1

  0
MTEXT
  5
169
330
166
100
AcDbEntity
  8
EBENE_1
 62
     0
100
AcDbMText
 10
6.7138020833
 20
4.7749217527
 30
0.0
 40
3.7041666667
 41
0.0
 71
     2
 72
     1
  1
(Inch)
  7
SLDTEXTSTYLE0
 73
     1
 44
1.0
  0
MTEXT
  5
16A
330
166
100
AcDbEntity
  8
EBENE_1
 62
     0
100
AcDbMText
 10
6.7309508326
 20
-1.1639672404
 30
0.0
 40
3.7041666667
 41
0.0
 71
     2
 72
     1
  1
mm
  7
SLDTEXTSTYLE0
 73
     1
 44
1.0
  0
ENDBLK
  5
168
330
166
100
AcDbEntity
  8
0
100
AcDbBlockEnd
  0
BLOCK
  5
172
330
171
100
AcDbEntity
  8
0
100
AcDbBlockBegin
  2
SW_NOTE_1
 70
     0
 10
0.0
 20
0.0
 30
0.0
  3
SW_NOTE_1
  1

  0
MTEXT
  5
174
330
171
100
AcDbEntity
  8
0
  6
Continuous
 62
     0
370
     0
100
AcDbMText
 10
19.893359375
 20
4.0927900738
 30
0.0
 40
3.175
 41
0.0
 71
     2
 72
     1
  1
ABP-Beyerle GmbH
  7
SLDTEXTSTYLE0
 73
     1
 44
1.0
  0
MTEXT
  5
175
330
171
100
AcDbEntity
  8
0
  6
Continuous
 62
     0
370
     0
100
AcDbMText
 10
20.6558884293
 20
-0.1405432084
 30
0.0
 40
3.175
 41
0.0
 71
     2
 72
     1
  1
Im Schollengarten 24b, 76646 Bruchsal
  7
SLDTEXTSTYLE0
 73
     1
 44
1.0
  0
MTEXT
  5
176
330
171
100
AcDbEntity
  8
0
  6
Continuous
 62
     0
370
     0
100
AcDbMText
 10
20.7863491923
 20
-4.3738764906
 30
0.0
 40
3.175
 41
0.0
 71
     2
 72
     1
  1
Tel. +49 (0)7251-9127-0, Fax. +49 (0)7251-9127-29
  7
SLDTEXTSTYLE0
 73
     1
 44
1.0
  0
MTEXT
  5
177
330
171
100
AcDbEntity
  8
0
  6
Continuous
 62
     0
370
     0
100
AcDbMText
 10
20.8392552227
 20
-8.6072097727
 30
0.0
 40
3.175
 41
0.0
 71
     2
 72
     1
  1
info@abp-beyerle.de, www.abp-beyerle.de
  7
SLDTEXTSTYLE0
 73
     1
 44
1.0
  0
ENDBLK
  5
173
330
171
100
AcDbEntity
  8
0
100
AcDbBlockEnd
  0
ENDSEC
  0
SECTION
  2
ENTITIES
  0
INSERT
  5
16D
330
1F
100
AcDbEntity
  8
EBENE_1
100
AcDbBlockReference
  2
Block1
 10
19.561342692
 20
-6.9223244521
 30
0.0
  0
MTEXT
  5
16F
330
1F
100
AcDbEntity
  8
0
  6
Continuous
 62
     7
370
     0
100
AcDbMText
 10
402.5
 20
14.7189135832
 30
0.0
 40
6.35
 41
0.0
 71
     1
 72
     1
  1
1:1
  7
SLDTEXTSTYLE1
 73
     1
 44
1.0
  0
MTEXT
  5
170
330
1F
100
AcDbEntity
  8
0
  6
Continuous
 62
     7
370
     0
100
AcDbMText
 10
168.4090458961
 20
14.7189131175
 30
0.0
 40
6.35
 41
0.0
 71
     1
 72
     1
  1
USU56-2300DB
  7
SLDTEXTSTYLE1
 73
     1
 44
1.0
  0
INSERT
  5
178
330
1F
100
AcDbEntity
  8
0
  6
Continuous
 62
     7
370
     0
100
AcDbBlockReference
  2
SW_NOTE_1
 10
35.4202146835
 20
20.1681939512
 30
0.0
  0
LINE
  5
179
330
1F
100
AcDbEntity
  8
0
  6
Continuous
 62
     7
370
    15
100
AcDbLine
 10
1636.5271742184
 20
2157.8320245269
 30
0.0
 11
1576.1395628292
 21
2157.8320245269
 31
0.0
  0
LINE
  5
17A
330
1F
100
AcDbEntity
  8
0
  6
Continuous
 62
     7
370
    15
100
AcDbLine
 10
1544.91459678
 20
2157.8320245269
 30
0.0
 11
202.0270759899
 21
2157.8320245269
 31
0.0
  0
LINE
  5
17B
330
1F
100
AcDbEntity
  8
0
  6
Continuous
 62
     7
370
    15
100
AcDbLine
 10
172.0271046002
 20
2157.8320245269
 30
0.0
 11
-548.9729018222
 21
2157.8320245269
 31
0.0
  0
LINE
  5
17C
330
1F
100
AcDbEntity
  8
0
  6
Continuous
 62
     7
370
    15
100
AcDbLine
 10
-578.9729011517
 20
2157.8320245269
 30
0.0
 11
-583.8604075175
 21
2157.8320245269
 31
0.0
  0
LINE
  5
17D
330
1F
100
AcDbEntity
  8
0
  6
Continuous
 62
     7
370
    15
100
AcDbLine
 10
-615.0853996437
 20
2157.8320245269
 30
0.0
 11
-663.4728973072
 21
2157.8320245269
 31
0.0
  0
LINE
  5
17E
330
1F
100
AcDbEntity
  8
0
  6
Continuous
 62
     7
370
    15
100
AcDbLine
 10
-663.4728973072
 20
2132.8320241544
 30
0.0
 11
-615.0853996437
 21
2132.8320241544
 31
0.0
  0
LINE
  5
17F
330
1F
100
AcDbEntity
  8
0
  6
Continuous
 62
     7
370
    15
100
AcDbLine
 10
-583.8604075175
 20
2132.8320241544
 30
0.0
 11
-578.9729011517
 21
2132.8320241544
 31
0.0
  0
LINE
  5
180
330
1F
100
AcDbEntity
  8
0
  6
Continuous
 62
     7
370
    15
100
AcDbLine
 10
-548.9729018222
 20
2132.8320241544
 30
0.0
 11
172.0271046002
 21
2132.8320241544
 31
0.0
  0
LINE
  5
181
330
1F
100
AcDbEntity
  8
0
  6
Continuous
 62
     7
370
    15
100
AcDbLine
 10
202.0270759899
 20
2132.8320241544
 30
0.0
 11
1544.91459678
 21
2132.8320241544
 31
0.0
  0
LINE
  5
182
330
1F
100
AcDbEntity
  8
0
  6
Continuous
 62
     7
370
    15
100
AcDbLine
 10
1576.1395628292
 20
2132.8320241544
 30
0.0
 11
1636.5271742184
 21
2132.8320241544
 31
0.0
  0
LINE
  5
183
330
1F
100
AcDbEntity
  8
0
  6
Continuous
 62
     7
370
    15
100
AcDbLine
 10
250.1318390209
 20
60.3319861937
 30
0.0
 11
250.0271136601
 21
54.331944232
 31
0.0
  0
LINE
  5
184
330
1F
100
AcDbEntity
  8
0
  6
Continuous
 62
     7
370
    15
100
AcDbLine
 10
278.0271107991
 20
54.331944232
 30
0.0
 11
277.9223854382
 21
60.3319861937
 31
0.0
  0
LINE
  5
185
330
1F
100
AcDbEntity
  8
0
  6
Continuous
 62
     7
370
    15
100
AcDbLine
 10
1636.5271742184
 20
2145.3320243406
 30
0.0
 11
1636.5271742184
 21
2157.8320245269
 31
0.0
  0
LINE
  5
186
330
1F
100
AcDbEntity
  8
0
  6
Continuous
 62
     7
370
    15
100
AcDbLine
 10
1636.5271742184
 20
2132.8320241544
 30
0.0
 11
1636.5271742184
 21
2145.3320243406
 31
0.0
  0
SPLINE
  5
187
330
1F
100
AcDbEntity
  8
0
  6
Continuous
 62
     7
370
    15
100
AcDbSpline
210
0.0
220
0.0
230
1.0
 70
    11
 71
     3
 72
    28
 73
    24
 74
     0
 42
0.000000001
 43
0.00000001
 40
0.0
 40
0.0
 40
0.0
 40
0.0
 40
0.0475550524748048
 40
0.0949664881253497
 40
0.146068975756833
 40
0.2034573914953985
 40
0.2467863078236984
 40
0.2901850464620394
 40
0.3330339571357026
 40
0.3834826873802729
 40
0.4410923408420046
 40
0.4950486976199662
 40
0.5415905777133897
 40
0.5869411576787213
 40
0.6370246762216054
 40
0.6937086482785995
 40
0.7381331155721225
 40
0.7826943710039848
 40
0.8249684923711311
 40
0.8737317774809911
 40
0.9306918424422169
 40
0.9860188783021494
 40
1.0
 40
1.0
 40
1.0
 40
1.0
 10
494.0770799953729
 20
2145.332024340629
 30
0.0
 10
494.0071243667503
 20
2144.559225208666
 30
0.0
 10
493.8674243763357
 20
2143.015960807311
 30
0.0
 10
492.7944628863328
 20
2140.93028228309
 30
0.0
 10
491.1401485610101
 20
2139.178951419345
 30
0.0
 10
489.0120387196426
 20
2138.065413143949
 30
0.0
 10
486.6865846699122
 20
2137.682929093636
 30
0.0
 10
484.5718473383749
 20
2137.940825989912
 30
0.0
 10
482.5766728501835
 20
2138.776611859003
 30
0.0
 10
480.7606747015163
 20
2140.247930499196
 30
0.0
 10
479.3901292833962
 20
2142.41756505017
 30
0.0
 10
478.8498858649779
 20
2144.967286182224
 30
0.0
 10
479.1386668308262
 20
2147.351279837393
 30
0.0
 10
480.0542691209562
 20
2149.428865544618
 30
0.0
 10
481.5947638125888
 20
2151.223668665991
 30
0.0
 10
483.6291190248474
 20
2152.442342667089
 30
0.0
 10
485.9378497645039
 20
2152.965148573354
 30
0.0
 10
488.1014492358471
 20
2152.816354063424
 30
0.0
 10
490.1315545820024
 20
2152.079244781507
 30
0.0
 10
491.9908793705952
 20
2150.731668527936
 30
0.0
 10
493.4663138188598
 20
2148.679880863476
 30
0.0
 10
494.0396264631934
 20
2146.679235353771
 30
0.0
 10
494.070792963043
 20
2145.558170145897
 30
0.0
 10
494.0770799953729
 20
2145.332024340629
 30
0.0
  0
SPLINE
  5
188
330
1F
100
AcDbEntity
  8
0
  6
Continuous
 62
     7
370
    15
100
AcDbSpline
210
0.0
220
0.0
230
1.0
 70
    11
 71
     3
 72
    28
 73
    24
 74
     0
 42
0.000000001
 43
0.00000001
 40
0.0
 40
0.0
 40
0.0
 40
0.0
 40
0.0475550225951836
 40
0.0949653817792787
 40
0.1460710516114045
 40
0.2034552336630085
 40
0.2467865320098738
 40
0.2901876734987466
 40
0.3330321561208633
 40
0.3834844814528808
 40
0.4410928492942296
 40
0.4950491721705253
 40
0.5415913118624128
 40
0.5869399509707343
 40
0.6370249574854225
 40
0.6937088939269451
 40
0.7381357032445461
 40
0.7826969306778391
 40
0.82497102548346
 40
0.8737323860198307
 40
0.9306924151921113
 40
0.9860187767971805
 40
0.9999999999999999
 40
0.9999999999999999
 40
0.9999999999999999
 40
0.9999999999999999
 10
1514.077060921887
 20
2145.332024340629
 30
0.0
 10
1514.00709113274
 20
2144.559233146083
 30
0.0
 10
1513.867364404065
 20
2143.016001604581
 30
0.0
 10
1512.794613531061
 20
2140.930167273475
 30
0.0
 10
1511.140009016133
 20
2139.179105909743
 30
0.0
 10
1509.012070132451
 20
2138.065331054167
 30
0.0
 10
1506.686564534886
 20
2137.682957862231
 30
0.0
 10
1504.571788556201
 20
2137.940751292207
 30
0.0
 10
1502.576725942284
 20
2138.776746436739
 30
0.0
 10
1500.760498743409
 20
2140.247802656928
 30
0.0
 10
1499.390170716434
 20
2142.417609791828
 30
0.0
 10
1498.849781778546
 20
2144.967300961061
 30
0.0
 10
1499.138882704436
 20
2147.351207282217
 30
0.0
 10
1500.054040599693
 20
2149.428962874137
 30
0.0
 10
1501.594789519189
 20
2151.223618223521
 30
0.0
 10
1503.629115221548
 20
2152.442376841468
 30
0.0
 10
1505.937919437446
 20
2152.96513842146
 30
0.0
 10
1508.101541857251
 20
2152.816352699922
 30
0.0
 10
1510.131648423364
 20
2152.079272466764
 30
0.0
 10
1511.990833466206
 20
2150.731620886812
 30
0.0
 10
1513.466402302007
 20
2148.679910717026
 30
0.0
 10
1514.039336821103
 20
2146.679214416986
 30
0.0
 10
1514.070728389513
 20
2145.558169552742
 30
0.0
 10
1514.077060921887
 20
2145.332024340629
 30
0.0
  0
SPLINE
  5
189
330
1F
100
AcDbEntity
  8
0
  6
Continuous
 62
     7
370
    15
100
AcDbSpline
210
0.0
220
0.0
230
1.0
 70
    11
 71
     3
 72
    28
 73
    24
 74
     0
 42
0.000000001
 43
0.00000001
 40
0.0
 40
0.0
 40
0.0
 40
0.0
 40
0.0475550105548472
 40
0.0949664044120332
 40
0.1460696505482394
 40
0.2034569662810952
 40
0.2467858444147923
 40
0.2901857598556373
 40
0.3330335324654472
 40
0.3834831249149289
 40
0.4410927275935345
 40
0.4950487889577702
 40
0.5415906280243512
 40
0.5869406898801289
 40
0.6370249239847614
 40
0.6937088460746209
 40
0.7381344591746818
 40
0.7826956753256298
 40
0.8249697594279791
 40
0.8737311076185837
 40
0.930692487938528
 40
0.9860188355356551
 40
1.0
 40
1.0
 40
1.0
 40
1.0
 10
-15.92291046788386
 20
2145.332024340629
 30
0.0
 10
-15.99286702822999
 20
2144.559226000325
 30
0.0
 10
-16.13256887927772
 20
2143.015963179899
 30
0.0
 10
-17.2055219883902
 20
2140.930261045723
 30
0.0
 10
-18.85989866020854
 20
2139.178988478711
 30
0.0
 10
-20.9879613327576
 20
2138.065397798147
 30
0.0
 10
-23.31342495068645
 20
2137.682935326747
 30
0.0
 10
-25.42817339681813
 20
2137.940804130073
 30
0.0
 10
-27.42333226287519
 20
2138.776644291527
 30
0.0
 10
-29.2393745990992
 20
2140.247907001829
 30
0.0
 10
-30.60993689687708
 20
2142.417559283876
 30
0.0
 10
-31.15009413930503
 20
2144.967296090568
 30
0.0
 10
-30.8613076758989
 20
2147.351261833529
 30
0.0
 10
-29.94580226811827
 20
2149.428899460313
 30
0.0
 10
-28.40521340554081
 20
2151.22364646164
 30
0.0
 10
-26.37086220042506
 20
2152.442358794337
 30
0.0
 10
-24.06209570921647
 20
2152.965144584286
 30
0.0
 10
-21.89848930538641
 20
2152.816349891299
 30
0.0
 10
-19.86837847277933
 20
2152.079276722767
 30
0.0
 10
-18.00920097644454
 20
2150.731590880621
 30
0.0
 10
-16.53351584305085
 20
2148.679949170476
 30
0.0
 10
-15.960504595117
 20
2146.679217631088
 30
0.0
 10
-15.92922116578011
 20
2145.558169499189
 30
0.0
 10
-15.92291046788386
 20
2145.332024340629
 30
0.0
  0
SPLINE
  5
18A
330
1F
100
AcDbEntity
  8
0
  6
Continuous
 62
     7
370
    15
100
AcDbSpline
210
0.0
220
0.0
230
1.0
 70
    11
 71
     3
 72
    28
 73
    24
 74
     0
 42
0.000000001
 43
0.00000001
 40
0.0
 40
0.0
 40
0.0
 40
0.0
 40
0.0475550261206441
 40
0.0949664354966182
 40
0.1460688948080157
 40
0.2034572787429463
 40
0.2467861710591346
 40
0.2901848856466699
 40
0.3330337725742321
 40
0.3834824748610172
 40
0.441092096396508
 40
0.4950484232728204
 40
0.5415902775735653
 40
0.5869408324064156
 40
0.6370243231939082
 40
0.6937082638376574
 40
0.7381327065119342
 40
0.7826963853657387
 40
0.8249704833053221
 40
0.8737318474565844
 40
0.9306918808515596
 40
0.986018886050237
 40
1.0
 40
1.0
 40
1.0
 40
1.0
 10
1004.07707045863
 20
2145.332024340629
 30
0.0
 10
1004.007114830007
 20
2144.559225208666
 30
0.0
 10
1003.867414839593
 20
2143.015960807311
 30
0.0
 10
1002.794453349589
 20
2140.93028228309
 30
0.0
 10
1001.140139024267
 20
2139.178951419344
 30
0.0
 10
999.0120291828983
 20
2138.065413143952
 30
0.0
 10
996.6865751331712
 20
2137.682929093626
 30
0.0
 10
994.5718378016246
 20
2137.940825989947
 30
0.0
 10
992.576663313467
 20
2138.776611858865
 30
0.0
 10
990.760665164645
 20
2140.247930499852
 30
0.0
 10
989.3901197471899
 20
2142.417565047427
 30
0.0
 10
988.8498763264881
 20
2144.967286191153
 30
0.0
 10
989.1386572995649
 20
2147.351279809378
 30
0.0
 10
990.0542595633581
 20
2149.42886565119
 30
0.0
 10
991.5947543677826
 20
2151.223668196184
 30
0.0
 10
993.6291091319878
 20
2152.442344486877
 30
0.0
 10
995.9378800393464
 20
2152.965152192482
 30
0.0
 10
998.1015174092273
 20
2152.8163621007
 30
0.0
 10
1000.131652310596
 20
2152.079272943397
 30
0.0
 10
1001.990867867574
 20
2150.731624135243
 30
0.0
 10
1003.466309819891
 20
2148.679886672632
 30
0.0
 10
1004.039616649976
 20
2146.679235063748
 30
0.0
 10
1004.07078337989
 20
2145.558170097213
 30
0.0
 10
1004.07707045863
 20
2145.332024340629
 30
0.0
  0
LINE
  5
18B
330
1F
100
AcDbEntity
  8
0
  6
Continuous
 62
     7
370
    15
100
AcDbLine
 10
-663.4728973072
 20
2145.3320243406
 30
0.0
 11
-663.4728973072
 21
2157.8320245269
 31
0.0
  0
LINE
  5
18C
330
1F
100
AcDbEntity
  8
0
  6
Continuous
 62
     7
370
    15
100
AcDbLine
 10
-663.4728973072
 20
2132.8320241544
 30
0.0
 11
-663.4728973072
 21
2145.3320243406
 31
0.0
  0
SPLINE
  5
18D
330
1F
100
AcDbEntity
  8
0
  6
Continuous
 62
     7
370
    15
100
AcDbSpline
210
0.0
220
0.0
230
1.0
 70
    11
 71
     3
 72
    28
 73
    24
 74
     0
 42
0.000000001
 43
0.00000001
 40
0.0
 40
0.0
 40
0.0
 40
0.0
 40
0.0475551017581375
 40
0.0949664478301106
 40
0.1460694109748523
 40
0.2034572620135032
 40
0.2467854039304265
 40
0.2901854595561359
 40
0.333033782865386
 40
0.3834830941484242
 40
0.4410924202715049
 40
0.4950486988046594
 40
0.5415905724712583
 40
0.586940833700558
 40
0.6370247232952869
 40
0.6937086281078243
 40
0.7381340333147035
 40
0.7826955103207593
 40
0.8249696366383934
 40
0.8737310939239695
 40
0.9306923259971295
 40
0.9860188322291031
 40
1.0
 40
1.0
 40
1.0
 40
1.0
 10
-525.9229018624634
 20
2145.332024340629
 30
0.0
 10
-525.9928700329401
 20
2144.55922626045
 30
0.0
 10
-526.1325948650965
 20
2143.015966213654
 30
0.0
 10
-527.2055334416767
 20
2140.930267091936
 30
0.0
 10
-528.8598932617492
 20
2139.178972719558
 30
0.0
 10
-530.9879672601538
 20
2138.065410981482
 30
0.0
 10
-533.3134231629748
 20
2137.682931482627
 30
0.0
 10
-535.4281695613307
 20
2137.940810092456
 30
0.0
 10
-537.4233447765671
 20
2138.776631602882
 30
0.0
 10
-539.2393834100689
 20
2140.247907650562
 30
0.0
 10
-540.6098885472938
 20
2142.417573518514
 30
0.0
 10
-541.1501388207045
 20
2144.967288866253
 30
0.0
 10
-540.8613218054577
 20
2147.351268901202
 30
0.0
 10
-539.9457847535358
 20
2149.428884700369
 30
0.0
 10
-538.4052355197404
 20
2151.223655829241
 30
0.0
 10
-536.3708809206418
 20
2152.442355429101
 30
0.0
 10
-534.0621181854839
 20
2152.965145965853
 30
0.0
 10
-531.898508612626
 20
2152.816350961515
 30
0.0
 10
-529.8683940903015
 20
2152.079275280816
 30
0.0
 10
-528.0092054042866
 20
2150.731597328354
 30
0.0
 10
-526.533549829169
 20
2148.679939296969
 30
0.0
 10
-525.9604981460553
 20
2146.679220578676
 30
0.0
 10
-525.9292129113057
 20
2145.558169598786
 30
0.0
 10
-525.9229018624634
 20
2145.332024340629
 30
0.0
  0
CIRCLE
  5
18E
330
1F
100
AcDbEntity
  8
0
  6
Continuous
 62
     7
370
    15
100
AcDbCircle
 10
1506.5270979245
 20
2145.3320243406
 30
0.0
 40
6.450000000000011
  0
CIRCLE
  5
18F
330
1F
100
AcDbEntity
  8
0
  6
Continuous
 62
     7
370
    15
100
AcDbCircle
 10
1506.5270979245
 20
2145.3320243406
 30
0.0
 40
7.449999999999847
  0
LINE
  5
190
330
1F
100
AcDbEntity
  8
0
  6
Continuous
 62
     7
370
    15
100
AcDbLine
 10
1509.277456506
 20
2146.2088748474
 30
0.0
 11
1507.1428949673
 21
2148.1523277714
 31
0.0
  0
LINE
  5
191
330
1F
100
AcDbEntity
  8
0
  6
Continuous
 62
     7
370
    15
100
AcDbLine
 10
1507.1428949673
 20
2148.1523277714
 30
0.0
 11
1504.3924982388
 21
2147.2754773229
 31
0.0
  0
LINE
  5
192
330
1F
100
AcDbEntity
  8
0
  6
Continuous
 62
     7
370
    15
100
AcDbLine
 10
1504.3924982388
 20
2147.2754773229
 30
0.0
 11
1503.776663049
 21
2144.4551738339
 31
0.0
  0
LINE
  5
193
330
1F
100
AcDbEntity
  8
0
  6
Continuous
 62
     7
370
    15
100
AcDbLine
 10
1503.776663049
 20
2144.4551738339
 30
0.0
 11
1505.9112245877
 21
2142.5117209098
 31
0.0
  0
LINE
  5
194
330
1F
100
AcDbEntity
  8
0
  6
Continuous
 62
     7
370
    15
100
AcDbLine
 10
1505.9112245877
 20
2142.5117209098
 30
0.0
 11
1508.6616213162
 21
2143.3885713584
 31
0.0
  0
LINE
  5
195
330
1F
100
AcDbEntity
  8
0
  6
Continuous
 62
     7
370
    15
100
AcDbLine
 10
1508.6616213162
 20
2143.3885713584
 30
0.0
 11
1509.277456506
 21
2146.2088748474
 31
0.0
  0
CIRCLE
  5
196
330
1F
100
AcDbEntity
  8
0
  6
Continuous
 62
     7
370
    15
100
AcDbCircle
 10
-533.4729020755
 20
2145.3320243406
 30
0.0
 40
6.450000000000011
  0
CIRCLE
  5
197
330
1F
100
AcDbEntity
  8
0
  6
Continuous
 62
     7
370
    15
100
AcDbCircle
 10
-533.4729020755
 20
2145.3320243406
 30
0.0
 40
7.449999999999957
  0
LINE
  5
198
330
1F
100
AcDbEntity
  8
0
  6
Continuous
 62
     7
370
    15
100
AcDbLine
 10
-530.7225458596
 20
2146.2088748474
 30
0.0
 11
-532.8570988417
 21
2148.1523277714
 31
0.0
  0
LINE
  5
199
330
1F
100
AcDbEntity
  8
0
  6
Continuous
 62
     7
370
    15
100
AcDbLine
 10
-532.8570988417
 20
2148.1523277714
 30
0.0
 11
-535.6074549995
 21
2147.2754773229
 31
0.0
  0
LINE
  5
19A
330
1F
100
AcDbEntity
  8
0
  6
Continuous
 62
     7
370
    15
100
AcDbLine
 10
-535.6074549995
 20
2147.2754773229
 30
0.0
 11
-536.2232582915
 21
2144.4551738339
 31
0.0
  0
LINE
  5
19B
330
1F
100
AcDbEntity
  8
0
  6
Continuous
 62
     7
370
    15
100
AcDbLine
 10
-536.2232582915
 20
2144.4551738339
 30
0.0
 11
-534.0887053094
 21
2142.5117209098
 31
0.0
  0
LINE
  5
19C
330
1F
100
AcDbEntity
  8
0
  6
Continuous
 62
     7
370
    15
100
AcDbLine
 10
-534.0887053094
 20
2142.5117209098
 30
0.0
 11
-531.3383491516
 21
2143.3885713584
 31
0.0
  0
LINE
  5
19D
330
1F
100
AcDbEntity
  8
0
  6
Continuous
 62
     7
370
    15
100
AcDbLine
 10
-531.3383491516
 20
2143.3885713584
 30
0.0
 11
-530.7225458596
 21
2146.2088748474
 31
0.0
  0
CIRCLE
  5
19E
330
1F
100
AcDbEntity
  8
0
  6
Continuous
 62
     7
370
    15
100
AcDbCircle
 10
486.5270979245
 20
2145.3320243406
 30
0.0
 40
6.4499999999999
  0
CIRCLE
  5
19F
330
1F
100
AcDbEntity
  8
0
  6
Continuous
 62
     7
370
    15
100
AcDbCircle
 10
486.5270979245
 20
2145.3320243406
 30
0.0
 40
7.449999999999902
  0
LINE
  5
1A0
330
1F
100
AcDbEntity
  8
0
  6
Continuous
 62
     7
370
    15
100
AcDbLine
 10
489.2774755795
 20
2146.2088748474
 30
0.0
 11
487.1429140408
 21
2148.1523277714
 31
0.0
  0
LINE
  5
1A1
330
1F
100
AcDbEntity
  8
0
  6
Continuous
 62
     7
370
    15
100
AcDbLine
 10
487.1429140408
 20
2148.1523277714
 30
0.0
 11
484.3925173123
 21
2147.2754773229
 31
0.0
  0
LINE
  5
1A2
330
1F
100
AcDbEntity
  8
0
  6
Continuous
 62
     7
370
    15
100
AcDbLine
 10
485.9112436611
 20
2142.5117209098
 30
0.0
 11
488.6616403897
 21
2143.3885713584
 31
0.0
  0
LINE
  5
1A3
330
1F
100
AcDbEntity
  8
0
  6
Continuous
 62
     7
370
    15
100
AcDbLine
 10
488.6616403897
 20
2143.3885713584
 30
0.0
 11
489.2774755795
 21
2146.2088748474
 31
0.0
  0
LINE
  5
1A4
330
1F
100
AcDbEntity
  8
0
  6
Continuous
 62
     7
370
    15
100
AcDbLine
 10
484.3925173123
 20
2147.2754773229
 30
0.0
 11
483.7768013317
 21
2144.4551738339
 31
0.0
  0
LINE
  5
1A5
330
1F
100
AcDbEntity
  8
0
  6
Continuous
 62
     7
370
    15
100
AcDbLine
 10
483.7768013317
 20
2144.4551738339
 30
0.0
 11
485.9112436611
 21
2142.5117209098
 31
0.0
  0
CIRCLE
  5
1A6
330
1F
100
AcDbEntity
  8
0
  6
Continuous
 62
     7
370
    15
100
AcDbCircle
 10
-23.4729020755
 20
2145.3320243406
 30
0.0
 40
6.449999999999945
  0
LINE
  5
1A7
330
1F
100
AcDbEntity
  8
0
  6
Continuous
 62
     7
370
    15
100
AcDbLine
 10
-20.7225744884
 20
2146.2088748474
 30
0.0
 11
-22.8570764225
 21
2148.1523277714
 31
0.0
  0
LINE
  5
1A8
330
1F
100
AcDbEntity
  8
0
  6
Continuous
 62
     7
370
    15
100
AcDbLine
 10
-22.8570764225
 20
2148.1523277714
 30
0.0
 11
-25.607473151
 21
2147.2754773229
 31
0.0
  0
LINE
  5
1A9
330
1F
100
AcDbEntity
  8
0
  6
Continuous
 62
     7
370
    15
100
AcDbLine
 10
-25.607473151
 20
2147.2754773229
 30
0.0
 11
-26.2232487362
 21
2144.4551738339
 31
0.0
  0
LINE
  5
1AA
330
1F
100
AcDbEntity
  8
0
  6
Continuous
 62
     7
370
    15
100
AcDbLine
 10
-26.2232487362
 20
2144.4551738339
 30
0.0
 11
-24.0886871975
 21
2142.5117209098
 31
0.0
  0
LINE
  5
1AB
330
1F
100
AcDbEntity
  8
0
  6
Continuous
 62
     7
370
    15
100
AcDbLine
 10
-24.0886871975
 20
2142.5117209098
 30
0.0
 11
-21.3383500736
 21
2143.3885713584
 31
0.0
  0
LINE
  5
1AC
330
1F
100
AcDbEntity
  8
0
  6
Continuous
 62
     7
370
    15
100
AcDbLine
 10
-21.3383500736
 20
2143.3885713584
 30
0.0
 11
-20.7225744884
 21
2146.2088748474
 31
0.0
  0
CIRCLE
  5
1AD
330
1F
100
AcDbEntity
  8
0
  6
Continuous
 62
     7
370
    15
100
AcDbCircle
 10
-23.4729020755
 20
2145.3320243406
 30
0.0
 40
7.45000000000004
  0
CIRCLE
  5
1AE
330
1F
100
AcDbEntity
  8
0
  6
Continuous
 62
     7
370
    15
100
AcDbCircle
 10
996.5270979245
 20
2145.3320243406
 30
0.0
 40
6.450000000000011
  0
CIRCLE
  5
1AF
330
1F
100
AcDbEntity
  8
0
  6
Continuous
 62
     7
370
    15
100
AcDbCircle
 10
996.5270979245
 20
2145.3320243406
 30
0.0
 40
7.449999999999957
  0
LINE
  5
1B0
330
1F
100
AcDbEntity
  8
0
  6
Continuous
 62
     7
370
    15
100
AcDbLine
 10
999.2774660427
 20
2146.2088748474
 30
0.0
 11
997.142904504
 21
2148.1523277714
 31
0.0
  0
LINE
  5
1B1
330
1F
100
AcDbEntity
  8
0
  6
Continuous
 62
     7
370
    15
100
AcDbLine
 10
995.9113533337
 20
2142.5117209098
 30
0.0
 11
998.6616308529
 21
2143.3885713584
 31
0.0
  0
LINE
  5
1B2
330
1F
100
AcDbEntity
  8
0
  6
Continuous
 62
     7
370
    15
100
AcDbLine
 10
998.6616308529
 20
2143.3885713584
 30
0.0
 11
999.2774660427
 21
2146.2088748474
 31
0.0
  0
LINE
  5
1B3
330
1F
100
AcDbEntity
  8
0
  6
Continuous
 62
     7
370
    15
100
AcDbLine
 10
993.776791795
 20
2144.4551738339
 30
0.0
 11
995.9113533337
 21
2142.5117209098
 31
0.0
  0
LINE
  5
1B4
330
1F
100
AcDbEntity
  8
0
  6
Continuous
 62
     7
370
    15
100
AcDbLine
 10
997.142904504
 20
2148.1523277714
 30
0.0
 11
994.3925077755
 21
2147.2754773229
 31
0.0
  0
LINE
  5
1B5
330
1F
100
AcDbEntity
  8
0
  6
Continuous
 62
     7
370
    15
100
AcDbLine
 10
994.3925077755
 20
2147.2754773229
 30
0.0
 11
993.776791795
 21
2144.4551738339
 31
0.0
  0
LINE
  5
1B6
330
1F
100
AcDbEntity
  8
0
  6
Continuous
 62
     7
370
    15
100
AcDbLine
 10
286.5270907719
 20
60.3319861937
 30
0.0
 11
286.5270907719
 21
2110.3320241916
 31
0.0
  0
LINE
  5
1B7
330
1F
100
AcDbEntity
  8
0
  6
Continuous
 62
     7
370
    15
100
AcDbLine
 10
-663.4728973072
 20
60.3319861937
 30
0.0
 11
286.5270907719
 21
60.3319861937
 31
0.0
  0
LINE
  5
1B8
330
1F
100
AcDbEntity
  8
0
  6
Continuous
 62
     7
370
    15
100
AcDbLine
 10
286.5270907719
 20
2110.3320241916
 30
0.0
 11
-663.4728973072
 21
2110.3320241916
 31
0.0
  0
LINE
  5
1B9
330
1F
100
AcDbEntity
  8
0
  6
Continuous
 62
     7
370
    15
100
AcDbLine
 10
-663.4728973072
 20
2110.3320241916
 30
0.0
 11
-663.4728973072
 21
60.3319861937
 31
0.0
  0
CIRCLE
  5
1BA
330
1F
100
AcDbEntity
  8
0
  6
Continuous
 62
     7
370
    15
100
AcDbCircle
 10
-563.9729020755
 20
2183.8320243406
 30
0.0
 40
12.33393612946668
  0
CIRCLE
  5
1BB
330
1F
100
AcDbEntity
  8
0
  6
Continuous
 62
     7
370
    15
100
AcDbCircle
 10
-563.9729020755
 20
2183.8320243406
 30
0.0
 40
12.49999999999989
  0
CIRCLE
  5
1BC
330
1F
100
AcDbEntity
  8
0
  6
Continuous
 62
     7
370
    15
100
AcDbCircle
 10
187.0270979244
 20
2183.8320243406
 30
0.0
 40
12.33393612946676
  0
CIRCLE
  5
1BD
330
1F
100
AcDbEntity
  8
0
  6
Continuous
 62
     7
370
    15
100
AcDbCircle
 10
187.0270979244
 20
2183.8320243406
 30
0.0
 40
12.49999999999997
  0
ARC
  5
1BE
330
1F
100
AcDbEntity
  8
0
  6
Continuous
 62
     7
370
    15
100
AcDbCircle
 10
-563.9729020755
 20
2183.8320243406
 30
0.0
 40
29.00000000000013
100
AcDbArc
 50
301.1473899215
 51
151.2090893295
  0
ARC
  5
1BF
330
1F
100
AcDbEntity
  8
0
  6
Continuous
 62
     7
370
    15
100
AcDbCircle
 10
-563.9729020755
 20
2183.8320243406
 30
0.0
 40
29.00000000000013
100
AcDbArc
 50
151.2090893295
 51
238.8526100785
  0
ARC
  5
1C0
330
1F
100
AcDbEntity
  8
0
  6
Continuous
 62
     7
370
    15
100
AcDbCircle
 10
187.0270979244
 20
2183.8320243406
 30
0.0
 40
29.0000000000002
100
AcDbArc
 50
301.1473899215
 51
151.2090893295
  0
ARC
  5
1C1
330
1F
100
AcDbEntity
  8
0
  6
Continuous
 62
     7
370
    15
100
AcDbCircle
 10
187.0270979244
 20
2183.8320243406
 30
0.0
 40
29.0000000000002
100
AcDbArc
 50
151.2090893295
 51
238.8526100785
  0
LINE
  5
1C2
330
1F
100
AcDbEntity
  8
0
  6
Continuous
 62
     7
370
    15
100
AcDbLine
 10
-548.9729018222
 20
2183.832024132
 30
0.0
 11
-548.9729018222
 21
2110.3320241916
 31
0.0
  0
ARC
  5
1C3
330
1F
100
AcDbEntity
  8
0
  6
Continuous
 62
     7
370
    15
100
AcDbCircle
 10
-563.9729020755
 20
2183.8320243406
 30
0.0
 40
15.00000000000011
100
AcDbArc
 50
0.0
 51
180.0
  0
LINE
  5
1C4
330
1F
100
AcDbEntity
  8
0
  6
Continuous
 62
     7
370
    15
100
AcDbLine
 10
-578.9729011517
 20
2110.3320241916
 30
0.0
 11
-578.9729011517
 21
2183.832024132
 31
0.0
  0
ARC
  5
1C5
330
1F
100
AcDbEntity
  8
0
  6
Continuous
 62
     7
370
    15
100
AcDbCircle
 10
187.0270979244
 20
2183.8320243406
 30
0.0
 40
15.00000000000003
100
AcDbArc
 50
0.0
 51
180.0
  0
LINE
  5
1C6
330
1F
100
AcDbEntity
  8
0
  6
Continuous
 62
     7
370
    15
100
AcDbLine
 10
202.0270759899
 20
2183.832024132
 30
0.0
 11
202.0270759899
 21
2110.3320241916
 31
0.0
  0
LINE
  5
1C7
330
1F
100
AcDbEntity
  8
0
  6
Continuous
 62
     7
370
    15
100
AcDbLine
 10
172.0271046002
 20
2110.3320241916
 30
0.0
 11
172.0271046002
 21
2183.832024132
 31
0.0
  0
LINE
  5
1C8
330
1F
100
AcDbEntity
  8
0
  6
Continuous
 62
     7
370
    15
100
AcDbLine
 10
237.027102216
 20
54.331944232
 30
0.0
 11
237.027102216
 21
50.3319957304
 31
0.0
  0
LINE
  5
1C9
330
1F
100
AcDbEntity
  8
0
  6
Continuous
 62
     7
370
    15
100
AcDbLine
 10
237.027102216
 20
54.331944232
 30
0.0
 11
301.5270764668
 21
54.331944232
 31
0.0
  0
LINE
  5
1CA
330
1F
100
AcDbEntity
  8
0
  6
Continuous
 62
     7
370
    15
100
AcDbLine
 10
301.5270764668
 20
54.331944232
 30
0.0
 11
301.5270764668
 21
50.3319957304
 31
0.0
  0
LINE
  5
1CB
330
1F
100
AcDbEntity
  8
0
  6
Continuous
 62
     7
370
    15
100
AcDbLine
 10
237.027102216
 20
50.3319957304
 30
0.0
 11
301.5270764668
 21
50.3319957304
 31
0.0
  0
SPLINE
  5
1CC
330
1F
100
AcDbEntity
  8
0
  6
Continuous
 62
     7
370
    15
100
AcDbSpline
210
0.0
220
0.0
230
1.0
 70
     8
 71
     3
 72
     9
 73
     5
 74
     0
 42
0.000000001
 43
0.00000001
 40
0.0
 40
0.0
 40
0.0
 40
0.0
 40
0.5000327883844289
 40
1.0
 40
1.0
 40
1.0
 40
1.0
 10
1557.860487206677
 20
2144.226257131546
 30
0.0
 10
1558.242361647214
 20
2143.933527268993
 30
0.0
 10
1559.00606044739
 20
2143.348105933923
 30
0.0
 10
1559.769671063011
 20
2142.76256965026
 30
0.0
 10
1560.151451333264
 20
2142.469820707217
 30
0.0
  0
SPLINE
  5
1CD
330
1F
100
AcDbEntity
  8
0
  6
Continuous
 62
     7
370
    15
100
AcDbSpline
210
0.0
220
0.0
230
1.0
 70
     8
 71
     3
 72
    14
 73
    10
 74
     0
 42
0.000000001
 43
0.00000001
 40
0.0
 40
0.0
 40
0.0
 40
0.0
 40
0.171990455757867
 40
0.3437024474431181
 40
0.5228561473161215
 40
0.7237738237236032
 40
0.9514122289436642
 40
0.9912364164935829
 40
1.0
 40
1.0
 40
1.0
 40
1.0
 10
1560.151451333264
 20
2142.469820707217
 30
0.0
 10
1560.151148365238
 20
2142.467784253351
 30
0.0
 10
1560.150542919713
 20
2142.463714642774
 30
0.0
 10
1560.146453050888
 20
2142.432343938245
 30
0.0
 10
1560.140133347123
 20
2142.385224460986
 30
0.0
 10
1560.132187534655
 20
2142.32104720659
 30
0.0
 10
1560.124087009178
 20
2142.266876020134
 30
0.0
 10
1560.12080479408
 20
2142.234940218222
 30
0.0
 10
1560.119904114284
 20
2142.229376308867
 30
0.0
 10
1560.119741662243
 20
2142.22837276861
 30
0.0
  0
SPLINE
  5
1CE
330
1F
100
AcDbEntity
  8
0
  6
Continuous
 62
     7
370
    15
100
AcDbSpline
210
0.0
220
0.0
230
1.0
 70
     8
 71
     3
 72
     9
 73
     5
 74
     0
 42
0.000000001
 43
0.00000001
 40
0.0
 40
0.0
 40
0.0
 40
0.0
 40
0.4999987052023287
 40
1.0
 40
1.0
 40
1.0
 40
1.0
 10
1560.119741662243
 20
2142.22837276861
 30
0.0
 10
1559.705429240862
 20
2142.545415272315
 30
0.0
 10
1558.876802252292
 20
2143.179501921751
 30
0.0
 10
1558.049373789388
 20
2143.815151753417
 30
0.0
 10
1557.635658486584
 20
2144.132977492287
 30
0.0
  0
SPLINE
  5
1CF
330
1F
100
AcDbEntity
  8
0
  6
Continuous
 62
     7
370
    15
100
AcDbSpline
210
0.0
220
0.0
230
1.0
 70
     8
 71
     3
 72
    14
 73
    10
 74
     0
 42
0.000000001
 43
0.00000001
 40
0.0
 40
0.0
 40
0.0
 40
0.0
 40
0.0082485301082639
 40
0.048237413705996
 40
0.2760097947540369
 40
0.4769856435170178
 40
0.6562121598388314
 40
0.8279760587069827
 40
1.0
 40
1.0
 40
1.0
 40
1.0
 10
1557.635658486584
 20
2144.132977492287
 30
0.0
 10
1557.636531737871
 20
2144.133367391789
 30
0.0
 10
1557.641638512421
 20
2144.135647524528
 30
0.0
 10
1557.671416779019
 20
2144.14754075679
 30
0.0
 10
1557.721876964803
 20
2144.168885962033
 30
0.0
 10
1557.781665230905
 20
2144.193552203084
 30
0.0
 10
1557.825580379203
 20
2144.211783200182
 30
0.0
 10
1557.854819722526
 20
2144.223896472015
 30
0.0
 10
1557.858597092887
 20
2144.225469848333
 30
0.0
 10
1557.860487206677
 20
2144.226257131546
 30
0.0
  0
CIRCLE
  5
1D0
330
1F
100
AcDbEntity
  8
0
  6
Continuous
 62
     7
370
    15
100
AcDbCircle
 10
1560.5270979245
 20
2145.3320243406
 30
0.0
 40
14.83208158365328
  0
SPLINE
  5
1D1
330
1F
100
AcDbEntity
  8
0
  6
Continuous
 62
     7
370
    15
100
AcDbSpline
210
0.0
220
0.0
230
1.0
 70
     8
 71
     3
 72
     9
 73
     5
 74
     0
 42
0.000000001
 43
0.00000001
 40
0.0
 40
0.0
 40
0.0
 40
0.0
 40
0.5000010932968474
 40
1.0
 40
1.0
 40
1.0
 40
1.0
 10
1557.635658486584
 20
2144.132977492287
 30
0.0
 10
1557.703051396713
 20
2144.650316479208
 30
0.0
 10
1557.837836922249
 20
2145.684992190633
 30
0.0
 10
1557.97453068684
 20
2146.719417527038
 30
0.0
 10
1558.042877419689
 20
2147.236629064306
 30
0.0
  0
SPLINE
  5
1D2
330
1F
100
AcDbEntity
  8
0
  6
Continuous
 62
     7
370
    15
100
AcDbSpline
210
0.0
220
0.0
230
1.0
 70
     8
 71
     3
 72
     9
 73
     5
 74
     0
 42
0.000000001
 43
0.00000001
 40
0.0
 40
0.0
 40
0.0
 40
0.0
 40
0.4999709664411436
 40
1.0
 40
1.0
 40
1.0
 40
1.0
 10
1563.011282189587
 20
2143.427419616952
 30
0.0
 10
1562.529583187385
 20
2143.227116401945
 30
0.0
 10
1561.56612923799
 20
2142.826486708519
 30
0.0
 10
1560.601889517699
 20
2142.427751799709
 30
0.0
 10
1560.119741662243
 20
2142.22837276861
 30
0.0
  0
SPLINE
  5
1D3
330
1F
100
AcDbEntity
  8
0
  6
Continuous
 62
     7
370
    15
100
AcDbSpline
210
0.0
220
0.0
230
1.0
 70
     8
 71
     3
 72
     9
 73
     5
 74
     0
 42
0.000000001
 43
0.00000001
 40
0.0
 40
0.0
 40
0.0
 40
0.0
 40
0.5000010932968474
 40
1.0
 40
1.0
 40
1.0
 40
1.0
 10
1563.418501122692
 20
2146.531071188971
 30
0.0
 10
1563.351108212564
 20
2146.013732202051
 30
0.0
 10
1563.216322687027
 20
2144.979056490625
 30
0.0
 10
1563.079628922436
 20
2143.944631154221
 30
0.0
 10
1563.011282189587
 20
2143.427419616952
 30
0.0
  0
SPLINE
  5
1D4
330
1F
100
AcDbEntity
  8
0
  6
Continuous
 62
     7
370
    15
100
AcDbSpline
210
0.0
220
0.0
230
1.0
 70
     8
 71
     3
 72
     9
 73
     5
 74
     0
 42
0.000000001
 43
0.00000001
 40
0.0
 40
0.0
 40
0.0
 40
0.0
 40
0.4999987052023287
 40
1.0
 40
1.0
 40
1.0
 40
1.0
 10
1560.934417947033
 20
2148.435675912648
 30
0.0
 10
1561.348730368414
 20
2148.118633408944
 30
0.0
 10
1562.177357356984
 20
2147.484546759507
 30
0.0
 10
1563.004785819888
 20
2146.848896927841
 30
0.0
 10
1563.418501122692
 20
2146.531071188971
 30
0.0
  0
SPLINE
  5
1D5
330
1F
100
AcDbEntity
  8
0
  6
Continuous
 62
     7
370
    15
100
AcDbSpline
210
0.0
220
0.0
230
1.0
 70
     8
 71
     3
 72
     9
 73
     5
 74
     0
 42
0.000000001
 43
0.00000001
 40
0.0
 40
0.0
 40
0.0
 40
0.0
 40
0.5000413033677874
 40
0.9999999999999999
 40
0.9999999999999999
 40
0.9999999999999999
 40
0.9999999999999999
 10
1558.042877419689
 20
2147.236629064306
 30
0.0
 10
1558.524661716709
 20
2147.436918265205
 30
0.0
 10
1559.488150720066
 20
2147.837463579262
 30
0.0
 10
1560.452355421312
 20
2148.236282783237
 30
0.0
 10
1560.934417947033
 20
2148.435675912648
 30
0.0
  0
SPLINE
  5
1D6
330
1F
100
AcDbEntity
  8
0
  6
Continuous
 62
     7
370
    15
100
AcDbSpline
210
0.0
220
0.0
230
1.0
 70
    24
 71
     3
 72
     9
 73
     5
 74
     0
 42
0.000000001
 43
0.00000001
 40
0.0
 40
0.0
 40
0.0
 40
0.0
 40
0.5
 40
1.0
 40
1.0
 40
1.0
 40
1.0
 10
1562.817924721935
 20
2143.575587916299
 30
0.0
 10
1562.880549335379
 20
2144.052621855201
 30
0.0
 10
1563.005798562267
 20
2145.006689733006
 30
0.0
 10
1563.131047789156
 20
2145.96075761081
 30
0.0
 10
1563.1936724026
 20
2146.437791549712
 30
0.0
  0
SPLINE
  5
1D7
330
1F
100
AcDbEntity
  8
0
  6
Continuous
 62
     7
370
    15
100
AcDbSpline
210
0.0
220
0.0
230
1.0
 70
     8
 71
     3
 72
    14
 73
    10
 74
     0
 42
0.000000001
 43
0.00000001
 40
0.0
 40
0.0
 40
0.0
 40
0.0
 40
0.1720239412930173
 40
0.3437878401611686
 40
0.5230143564829821
 40
0.7239902052459631
 40
0.951762586294004
 40
0.9917514698917361
 40
1.0
 40
1.0
 40
1.0
 40
1.0
 10
1563.1936724026
 20
2146.437791549712
 30
0.0
 10
1563.195562516389
 20
2146.438578832925
 30
0.0
 10
1563.19933988675
 20
2146.440152209243
 30
0.0
 10
1563.228579230072
 20
2146.452265481076
 30
0.0
 10
1563.272494378372
 20
2146.470496478174
 30
0.0
 10
1563.332282644471
 20
2146.495162719225
 30
0.0
 10
1563.382742830263
 20
2146.516507924469
 30
0.0
 10
1563.412521096853
 20
2146.52840115673
 30
0.0
 10
1563.417627871405
 20
2146.53068128947
 30
0.0
 10
1563.418501122692
 20
2146.531071188971
 30
0.0
  0
SPLINE
  5
1D8
330
1F
100
AcDbEntity
  8
0
  6
Continuous
 62
     7
370
    15
100
AcDbSpline
210
0.0
220
0.0
230
1.0
 70
     8
 71
     3
 72
    14
 73
    10
 74
     0
 42
0.000000001
 43
0.00000001
 40
0.0
 40
0.0
 40
0.0
 40
0.0
 40
0.1720408545508413
 40
0.3437361769096187
 40
0.5228826205948292
 40
0.7239955710186636
 40
0.951592377710336
 40
0.9913308373973453
 40
1.0
 40
1.0
 40
1.0
 40
1.0
 10
1562.817924721935
 20
2143.575587916299
 30
0.0
 10
1562.819613141891
 20
2143.57433864783
 30
0.0
 10
1562.822986590727
 20
2143.571842619961
 30
0.0
 10
1562.84803223484
 20
2143.552592522023
 30
0.0
 10
1562.88577326824
 20
2143.523647947572
 30
0.0
 10
1562.93716287658
 20
2143.484334853494
 30
0.0
 10
1562.980637701885
 20
2143.451027921267
 30
0.0
 10
1563.006051248735
 20
2143.431477401435
 30
0.0
 10
1563.010487683084
 20
2143.428035937468
 30
0.0
 10
1563.011282189587
 20
2143.427419616952
 30
0.0
  0
SPLINE
  5
1D9
330
1F
100
AcDbEntity
  8
0
  6
Continuous
 62
     7
370
    15
100
AcDbSpline
210
0.0
220
0.0
230
1.0
 70
     8
 71
     3
 72
     9
 73
     5
 74
     0
 42
0.000000001
 43
0.00000001
 40
0.0
 40
0.0
 40
0.0
 40
0.0
 40
0.4999672606768842
 40
1.0
 40
1.0
 40
1.0
 40
1.0
 10
1563.1936724026
 20
2146.437791549712
 30
0.0
 10
1562.81189215108
 20
2146.730540594807
 30
0.0
 10
1562.048281647857
 20
2147.31607702513
 30
0.0
 10
1561.284582735284
 20
2147.901498213542
 30
0.0
 10
1560.902708276013
 20
2148.194227974042
 30
0.0
  0
SPLINE
  5
1DA
330
1F
100
AcDbEntity
  8
0
  6
Continuous
 62
     7
370
    15
100
AcDbSpline
210
0.0
220
0.0
230
1.0
 70
     8
 71
     3
 72
    14
 73
    10
 74
     0
 42
0.000000001
 43
0.00000001
 40
0.0
 40
0.0
 40
0.0
 40
0.0
 40
0.0087635835064172
 40
0.0485877710563358
 40
0.2762261762763968
 40
0.4771438526838784
 40
0.6562975525568818
 40
0.828009544242133
 40
1.0
 40
1.0
 40
1.0
 40
1.0
 10
1560.934417947033
 20
2148.435675912648
 30
0.0
 10
1560.934255494991
 20
2148.434672372392
 30
0.0
 10
1560.933354815196
 20
2148.429108463037
 30
0.0
 10
1560.9300726001
 20
2148.397172661125
 30
0.0
 10
1560.921972074619
 20
2148.343001474669
 30
0.0
 10
1560.914026262153
 20
2148.278824220273
 30
0.0
 10
1560.907706558389
 20
2148.231704743013
 30
0.0
 10
1560.903616689562
 20
2148.200334038484
 30
0.0
 10
1560.903011244037
 20
2148.196264427908
 30
0.0
 10
1560.902708276013
 20
2148.194227974042
 30
0.0
  0
SPLINE
  5
1DB
330
1F
100
AcDbEntity
  8
0
  6
Continuous
 62
     7
370
    15
100
AcDbSpline
210
0.0
220
0.0
230
1.0
 70
     8
 71
     3
 72
    14
 73
    10
 74
     0
 42
0.000000001
 43
0.00000001
 40
0.0
 40
0.0
 40
0.0
 40
0.0
 40
0.0086686790897597
 40
0.0489485700856651
 40
0.2765326828187679
 40
0.477146542601347
 40
0.6562829945930575
 40
0.8279687408363335
 40
1.0
 40
1.0
 40
1.0
 40
1.0
 10
1558.042877419689
 20
2147.236629064306
 30
0.0
 10
1558.043671302364
 20
2147.236011922165
 30
0.0
 10
1558.048154040891
 20
2147.232527166873
 30
0.0
 10
1558.073936187132
 20
2147.213356724253
 30
0.0
 10
1558.117161179907
 20
2147.179680620656
 30
0.0
 10
1558.168402428851
 20
2147.140367663532
 30
0.0
 10
1558.206131554466
 20
2147.111457970441
 30
0.0
 10
1558.231171989688
 20
2147.092205615492
 30
0.0
 10
1558.234546124202
 20
2147.089709884727
 30
0.0
 10
1558.236234887341
 20
2147.088460764959
 30
0.0
  0
SPLINE
  5
1DC
330
1F
100
AcDbEntity
  8
0
  6
Continuous
 62
     7
370
    15
100
AcDbSpline
210
0.0
220
0.0
230
1.0
 70
    24
 71
     3
 72
     9
 73
     5
 74
     0
 42
0.000000001
 43
0.00000001
 40
0.0
 40
0.0
 40
0.0
 40
0.0
 40
0.5
 40
1.0
 40
1.0
 40
1.0
 40
1.0
 10
1558.236234887341
 20
2147.088460764959
 30
0.0
 10
1558.173610273897
 20
2146.611426826057
 30
0.0
 10
1558.048361047009
 20
2145.657358948253
 30
0.0
 10
1557.923111820121
 20
2144.703291070448
 30
0.0
 10
1557.860487206677
 20
2144.226257131546
 30
0.0
  0
SPLINE
  5
1DD
330
1F
100
AcDbEntity
  8
0
  6
Continuous
 62
     7
370
    15
100
AcDbSpline
210
0.0
220
0.0
230
1.0
 70
    24
 71
     3
 72
     9
 73
     5
 74
     0
 42
0.000000001
 43
0.00000001
 40
0.0
 40
0.0
 40
0.0
 40
0.0
 40
0.4999999999999999
 40
0.9999999999999999
 40
0.9999999999999999
 40
0.9999999999999999
 40
0.9999999999999999
 10
1560.902708276013
 20
2148.194227974042
 30
0.0
 10
1560.458296044567
 20
2148.009933439195
 30
0.0
 10
1559.569471581676
 20
2147.641344369501
 30
0.0
 10
1558.680647118786
 20
2147.272755299806
 30
0.0
 10
1558.236234887341
 20
2147.088460764959
 30
0.0
  0
SPLINE
  5
1DE
330
1F
100
AcDbEntity
  8
0
  6
Continuous
 62
     7
370
    15
100
AcDbSpline
210
0.0
220
0.0
230
1.0
 70
    24
 71
     3
 72
     9
 73
     5
 74
     0
 42
0.000000001
 43
0.00000001
 40
0.0
 40
0.0
 40
0.0
 40
0.0
 40
0.4999999999999999
 40
0.9999999999999999
 40
0.9999999999999999
 40
0.9999999999999999
 40
0.9999999999999999
 10
1560.151451333264
 20
2142.469820707217
 30
0.0
 10
1560.595863564709
 20
2142.654115242064
 30
0.0
 10
1561.4846880276
 20
2143.022704311758
 30
0.0
 10
1562.37351249049
 20
2143.391293381452
 30
0.0
 10
1562.817924721935
 20
2143.575587916299
 30
0.0
  0
CIRCLE
  5
1DF
330
1F
100
AcDbEntity
  8
0
  6
Continuous
 62
     7
370
    15
100
AcDbCircle
 10
1560.5270979245
 20
2145.3320243406
 30
0.0
 40
15.00000000000022
  0
SPLINE
  5
1E0
330
1F
100
AcDbEntity
  8
0
  6
Continuous
 62
     7
370
    15
100
AcDbSpline
210
0.0
220
0.0
230
1.0
 70
     8
 71
     3
 72
     9
 73
     5
 74
     0
 42
0.000000001
 43
0.00000001
 40
0.0
 40
0.0
 40
0.0
 40
0.0
 40
0.5000000245314602
 40
1.0
 40
1.0
 40
1.0
 40
1.0
 10
-602.1394719641418
 20
2144.226257131546
 30
0.0
 10
-601.7576545531847
 20
2143.933517676465
 30
0.0
 10
-600.9940197687365
 20
2143.348038795028
 30
0.0
 10
-600.2303848718898
 20
2142.762560060245
 30
0.0
 10
-599.8485674421996
 20
2142.469820707217
 30
0.0
  0
SPLINE
  5
1E1
330
1F
100
AcDbEntity
  8
0
  6
Continuous
 62
     7
370
    15
100
AcDbSpline
210
0.0
220
0.0
230
1.0
 70
     8
 71
     3
 72
    14
 73
    10
 74
     0
 42
0.000000001
 43
0.00000001
 40
0.0
 40
0.0
 40
0.0
 40
0.0
 40
0.1719818508327114
 40
0.3436884514612368
 40
0.5228332550687177
 40
0.7237801531692101
 40
0.9513957350005205
 40
0.9912701611157818
 40
0.9999999999999999
 40
0.9999999999999999
 40
0.9999999999999999
 40
0.9999999999999999
 10
-599.8485674421996
 20
2142.469820707217
 30
0.0
 10
-599.8488319638276
 20
2142.467783950931
 30
0.0
 10
-599.8493605837272
 20
2142.463713698108
 30
0.0
 10
-599.8534911729761
 20
2142.432347155553
 30
0.0
 10
-599.8596625037924
 20
2142.385209551849
 30
0.0
 10
-599.8680985928353
 20
2142.321091212641
 30
0.0
 10
-599.8752037325444
 20
2142.266781322952
 30
0.0
 10
-599.8793905798096
 20
2142.234966864229
 30
0.0
 10
-599.8801231789432
 20
2142.229376802657
 30
0.0
 10
-599.8802547614783
 20
2142.22837276861
 30
0.0
  0
SPLINE
  5
1E2
330
1F
100
AcDbEntity
  8
0
  6
Continuous
 62
     7
370
    15
100
AcDbSpline
210
0.0
220
0.0
230
1.0
 70
     8
 71
     3
 72
     9
 73
     5
 74
     0
 42
0.000000001
 43
0.00000001
 40
0.0
 40
0.0
 40
0.0
 40
0.0
 40
0.499999654431701
 40
0.9999999999999999
 40
0.9999999999999999
 40
0.9999999999999999
 40
0.9999999999999999
 10
-599.8802547614783
 20
2142.22837276861
 30
0.0
 10
-600.2945823122914
 20
2142.545414970502
 30
0.0
 10
-601.1232379866318
 20
2143.179499812527
 30
0.0
 10
-601.9506924005987
 20
2143.815151452593
 30
0.0
 10
-602.3644198935241
 20
2144.132977492287
 30
0.0
  0
SPLINE
  5
1E3
330
1F
100
AcDbEntity
  8
0
  6
Continuous
 62
     7
370
    15
100
AcDbSpline
210
0.0
220
0.0
230
1.0
 70
     8
 71
     3
 72
    14
 73
    10
 74
     0
 42
0.000000001
 43
0.00000001
 40
0.0
 40
0.0
 40
0.0
 40
0.0
 40
0.0087364293362316
 40
0.0485955450523425
 40
0.276225360484658
 40
0.4771620459753258
 40
0.656308927054721
 40
0.8280145639137725
 40
1.0
 40
1.0
 40
1.0
 40
1.0
 10
-602.3644198935241
 20
2144.132977492287
 30
0.0
 10
-602.3634836720721
 20
2144.133365351733
 30
0.0
 10
-602.3582760305978
 20
2144.135522782467
 30
0.0
 10
-602.3286389383222
 20
2144.147825669033
 30
0.0
 10
-602.2780389351115
 20
2144.168792563683
 30
0.0
 10
-602.2183048126258
 20
2144.193570723841
 30
0.0
 10
-602.1743892755278
 20
2144.211779246648
 30
0.0
 10
-602.1451688566289
 20
2144.223898033755
 30
0.0
 10
-602.1413719586568
 20
2144.225470338944
 30
0.0
 10
-602.1394719641418
 20
2144.226257131546
 30
0.0
  0
CIRCLE
  5
1E4
330
1F
100
AcDbEntity
  8
0
  6
Continuous
 62
     7
370
    15
100
AcDbCircle
 10
-599.4729020755
 20
2145.3320243406
 30
0.0
 40
14.83208158365307
  0
SPLINE
  5
1E5
330
1F
100
AcDbEntity
  8
0
  6
Continuous
 62
     7
370
    15
100
AcDbSpline
210
0.0
220
0.0
230
1.0
 70
     8
 71
     3
 72
     9
 73
     5
 74
     0
 42
0.000000001
 43
0.00000001
 40
0.0
 40
0.0
 40
0.0
 40
0.0
 40
0.5000001512645639
 40
1.0
 40
1.0
 40
1.0
 40
1.0
 10
-602.3644198935241
 20
2144.132977492287
 30
0.0
 10
-602.2970157429952
 20
2144.65031696642
 30
0.0
 10
-602.1622074827211
 20
2145.684995601664
 30
0.0
 10
-602.0254470470943
 20
2146.719418014406
 30
0.0
 10
-601.9570668499679
 20
2147.236629064306
 30
0.0
  0
SPLINE
  5
1E6
330
1F
100
AcDbEntity
  8
0
  6
Continuous
 62
     7
370
    15
100
AcDbSpline
210
0.0
220
0.0
230
1.0
 70
     8
 71
     3
 72
     9
 73
     5
 74
     0
 42
0.000000001
 43
0.00000001
 40
0.0
 40
0.0
 40
0.0
 40
0.0
 40
0.5000006406973072
 40
1.0
 40
1.0
 40
1.0
 40
1.0
 10
-596.9887365858764
 20
2143.427419616952
 30
0.0
 10
-597.4704678457239
 20
2143.227122313356
 30
0.0
 10
-598.4339291308445
 20
2142.826528219483
 30
0.0
 10
-599.3981466297815
 20
2142.427757748574
 30
0.0
 10
-599.8802547614783
 20
2142.22837276861
 30
0.0
  0
SPLINE
  5
1E7
330
1F
100
AcDbEntity
  8
0
  6
Continuous
 62
     7
370
    15
100
AcDbSpline
210
0.0
220
0.0
230
1.0
 70
     8
 71
     3
 72
     9
 73
     5
 74
     0
 42
0.000000001
 43
0.00000001
 40
0.0
 40
0.0
 40
0.0
 40
0.0
 40
0.5000001512645639
 40
1.0
 40
1.0
 40
1.0
 40
1.0
 10
-596.5813835423202
 20
2146.531071188971
 30
0.0
 10
-596.648787692849
 20
2146.013731714839
 30
0.0
 10
-596.7835959531232
 20
2144.979053079595
 30
0.0
 10
-596.92035638875
 20
2143.944630666852
 30
0.0
 10
-596.9887365858764
 20
2143.427419616952
 30
0.0
  0
SPLINE
  5
1E8
330
1F
100
AcDbEntity
  8
0
  6
Continuous
 62
     7
370
    15
100
AcDbSpline
210
0.0
220
0.0
230
1.0
 70
     8
 71
     3
 72
     9
 73
     5
 74
     0
 42
0.000000001
 43
0.00000001
 40
0.0
 40
0.0
 40
0.0
 40
0.0
 40
0.499999654431701
 40
0.9999999999999999
 40
0.9999999999999999
 40
0.9999999999999999
 40
0.9999999999999999
 10
-599.0655486743659
 20
2148.435675912648
 30
0.0
 10
-598.6512211235529
 20
2148.118633710756
 30
0.0
 10
-597.8225654492124
 20
2147.484548868732
 30
0.0
 10
-596.9951110352456
 20
2146.848897228665
 30
0.0
 10
-596.5813835423202
 20
2146.531071188971
 30
0.0
  0
SPLINE
  5
1E9
330
1F
100
AcDbEntity
  8
0
  6
Continuous
 62
     7
370
    15
100
AcDbSpline
210
0.0
220
0.0
230
1.0
 70
     8
 71
     3
 72
     9
 73
     5
 74
     0
 42
0.000000001
 43
0.00000001
 40
0.0
 40
0.0
 40
0.0
 40
0.0
 40
0.5000006406973072
 40
1.0
 40
1.0
 40
1.0
 40
1.0
 10
-601.9570668499679
 20
2147.236629064306
 30
0.0
 10
-601.4753355901204
 20
2147.436926367902
 30
0.0
 10
-600.5118743049998
 20
2147.837520461775
 30
0.0
 10
-599.5476568060627
 20
2148.236290932685
 30
0.0
 10
-599.0655486743659
 20
2148.435675912648
 30
0.0
  0
SPLINE
  5
1EA
330
1F
100
AcDbEntity
  8
0
  6
Continuous
 62
     7
370
    15
100
AcDbSpline
210
0.0
220
0.0
230
1.0
 70
    24
 71
     3
 72
     9
 73
     5
 74
     0
 42
0.000000001
 43
0.00000001
 40
0.0
 40
0.0
 40
0.0
 40
0.0
 40
0.5
 40
1.0
 40
1.0
 40
1.0
 40
1.0
 10
-597.1819897453994
 20
2143.575587916299
 30
0.0
 10
-597.1193800331165
 20
2144.052621855201
 30
0.0
 10
-596.9941606085509
 20
2145.006689733006
 30
0.0
 10
-596.8689411839854
 20
2145.96075761081
 30
0.0
 10
-596.8063314717025
 20
2146.437791549712
 30
0.0
  0
SPLINE
  5
1EB
330
1F
100
AcDbEntity
  8
0
  6
Continuous
 62
     7
370
    15
100
AcDbSpline
210
0.0
220
0.0
230
1.0
 70
     8
 71
     3
 72
    14
 73
    10
 74
     0
 42
0.000000001
 43
0.00000001
 40
0.0
 40
0.0
 40
0.0
 40
0.0
 40
0.1719854360862274
 40
0.343691072945279
 40
0.5228379540246741
 40
0.7237746395153418
 40
0.9514044549476575
 40
0.9912635706637682
 40
1.0
 40
1.0
 40
1.0
 40
1.0
 10
-596.8063314717025
 20
2146.437791549712
 30
0.0
 10
-596.8044314771874
 20
2146.438578342314
 30
0.0
 10
-596.8006345792154
 20
2146.440150647503
 30
0.0
 10
-596.7714141603165
 20
2146.452269434611
 30
0.0
 10
-596.7274986232185
 20
2146.470477957418
 30
0.0
 10
-596.6677645007328
 20
2146.495256117576
 30
0.0
 10
-596.617164497522
 20
2146.516223012226
 30
0.0
 10
-596.5875274052463
 20
2146.528525898791
 30
0.0
 10
-596.582319763772
 20
2146.530683329526
 30
0.0
 10
-596.5813835423202
 20
2146.531071188971
 30
0.0
  0
SPLINE
  5
1EC
330
1F
100
AcDbEntity
  8
0
  6
Continuous
 62
     7
370
    15
100
AcDbSpline
210
0.0
220
0.0
230
1.0
 70
     8
 71
     3
 72
    14
 73
    10
 74
     0
 42
0.000000001
 43
0.00000001
 40
0.0
 40
0.0
 40
0.0
 40
0.0
 40
0.1719800398274986
 40
0.3436871140597566
 40
0.5228285806790214
 40
0.7237833561243568
 40
0.9513906038995359
 40
0.9912634704018112
 40
1.0
 40
1.0
 40
1.0
 40
1.0
 10
-597.1819897453994
 20
2143.575587916299
 30
0.0
 10
-597.1803615584015
 20
2143.574337986126
 30
0.0
 10
-597.1771077686532
 20
2143.571840109661
 30
0.0
 10
-597.1519969958586
 20
2143.552591984476
 30
0.0
 10
-597.114273229395
 20
2143.523663917782
 30
0.0
 10
-597.0629465261317
 20
2143.484318227288
 30
0.0
 10
-597.0194777209896
 20
2143.450994981952
 30
0.0
 10
-596.9940180776194
 20
2143.431463557432
 30
0.0
 10
-596.9895412098907
 20
2143.428035702669
 30
0.0
 10
-596.9887365858764
 20
2143.427419616952
 30
0.0
  0
SPLINE
  5
1ED
330
1F
100
AcDbEntity
  8
0
  6
Continuous
 62
     7
370
    15
100
AcDbSpline
210
0.0
220
0.0
230
1.0
 70
     8
 71
     3
 72
     9
 73
     5
 74
     0
 42
0.000000001
 43
0.00000001
 40
0.0
 40
0.0
 40
0.0
 40
0.0
 40
0.5000000245314602
 40
1.0
 40
1.0
 40
1.0
 40
1.0
 10
-596.8063314717025
 20
2146.437791549712
 30
0.0
 10
-597.1881488826596
 20
2146.730531004794
 30
0.0
 10
-597.9517836671077
 20
2147.31600988623
 30
0.0
 10
-598.7154185639545
 20
2147.901488621013
 30
0.0
 10
-599.0972359936446
 20
2148.194227974042
 30
0.0
  0
SPLINE
  5
1EE
330
1F
100
AcDbEntity
  8
0
  6
Continuous
 62
     7
370
    15
100
AcDbSpline
210
0.0
220
0.0
230
1.0
 70
     8
 71
     3
 72
    14
 73
    10
 74
     0
 42
0.000000001
 43
0.00000001
 40
0.0
 40
0.0
 40
0.0
 40
0.0
 40
0.0087298367304232
 40
0.0486042530080074
 40
0.2762225271845859
 40
0.4771668739228487
 40
0.656311633332359
 40
0.8280181915980408
 40
1.0
 40
1.0
 40
1.0
 40
1.0
 10
-599.0655486743659
 20
2148.435675912648
 30
0.0
 10
-599.0656802581567
 20
2148.434671878754
 30
0.0
 10
-599.0664128642809
 20
2148.429081818033
 30
0.0
 10
-599.0705991293444
 20
2148.39726696691
 30
0.0
 10
-599.0777183136056
 20
2148.342958751636
 30
0.0
 10
-599.0861379587838
 20
2148.278838569213
 30
0.0
 10
-599.0923129886925
 20
2148.231701609499
 30
0.0
 10
-599.0964426735443
 20
2148.200334962535
 30
0.0
 10
-599.0969714124606
 20
2148.196264723452
 30
0.0
 10
-599.0972359936446
 20
2148.194227974042
 30
0.0
  0
SPLINE
  5
1EF
330
1F
100
AcDbEntity
  8
0
  6
Continuous
 62
     7
370
    15
100
AcDbSpline
210
0.0
220
0.0
230
1.0
 70
    24
 71
     3
 72
     9
 73
     5
 74
     0
 42
0.000000001
 43
0.00000001
 40
0.0
 40
0.0
 40
0.0
 40
0.0
 40
0.5
 40
1.0
 40
1.0
 40
1.0
 40
1.0
 10
-599.0972359936446
 20
2148.194227974042
 30
0.0
 10
-599.5416656097781
 20
2148.009933439195
 30
0.0
 10
-600.4305248420447
 20
2147.641344369501
 30
0.0
 10
-601.3193840743114
 20
2147.272755299806
 30
0.0
 10
-601.7638136904449
 20
2147.088460764959
 30
0.0
  0
SPLINE
  5
1F0
330
1F
100
AcDbEntity
  8
0
  6
Continuous
 62
     7
370
    15
100
AcDbSpline
210
0.0
220
0.0
230
1.0
 70
     8
 71
     3
 72
    14
 73
    10
 74
     0
 42
0.000000001
 43
0.00000001
 40
0.0
 40
0.0
 40
0.0
 40
0.0
 40
0.0087365295981888
 40
0.048609396100464
 40
0.2762166438756432
 40
0.4771714193209786
 40
0.6563128859402434
 40
0.8280199601725015
 40
1.0
 40
1.0
 40
1.0
 40
1.0
 10
-601.9570668499679
 20
2147.236629064306
 30
0.0
 10
-601.9562622259535
 20
2147.23601297859
 30
0.0
 10
-601.9517853582248
 20
2147.232585123826
 30
0.0
 10
-601.9263257148546
 20
2147.213053699307
 30
0.0
 10
-601.8828569097126
 20
2147.17973045397
 30
0.0
 10
-601.8315302064492
 20
2147.140384763477
 30
0.0
 10
-601.7938064399857
 20
2147.111456696782
 30
0.0
 10
-601.7686956671911
 20
2147.092208571597
 30
0.0
 10
-601.7654418774428
 20
2147.089710695132
 30
0.0
 10
-601.7638136904449
 20
2147.088460764959
 30
0.0
  0
SPLINE
  5
1F1
330
1F
100
AcDbEntity
  8
0
  6
Continuous
 62
     7
370
    15
100
AcDbSpline
210
0.0
220
0.0
230
1.0
 70
    24
 71
     3
 72
     9
 73
     5
 74
     0
 42
0.000000001
 43
0.00000001
 40
0.0
 40
0.0
 40
0.0
 40
0.0
 40
0.5
 40
1.0
 40
1.0
 40
1.0
 40
1.0
 10
-601.7638136904449
 20
2147.088460764959
 30
0.0
 10
-601.8264234027278
 20
2146.611426826057
 30
0.0
 10
-601.9516428272933
 20
2145.657358948253
 30
0.0
 10
-602.0768622518589
 20
2144.703291070448
 30
0.0
 10
-602.1394719641418
 20
2144.226257131546
 30
0.0
  0
SPLINE
  5
1F2
330
1F
100
AcDbEntity
  8
0
  6
Continuous
 62
     7
370
    15
100
AcDbSpline
210
0.0
220
0.0
230
1.0
 70
    24
 71
     3
 72
     9
 73
     5
 74
     0
 42
0.000000001
 43
0.00000001
 40
0.0
 40
0.0
 40
0.0
 40
0.0
 40
0.5
 40
1.0
 40
1.0
 40
1.0
 40
1.0
 10
-599.8485674421996
 20
2142.469820707217
 30
0.0
 10
-599.4041378260662
 20
2142.654115242064
 30
0.0
 10
-598.5152785937995
 20
2143.022704311758
 30
0.0
 10
-597.6264193615328
 20
2143.391293381452
 30
0.0
 10
-597.1819897453994
 20
2143.575587916299
 30
0.0
  0
CIRCLE
  5
1F3
330
1F
100
AcDbEntity
  8
0
  6
Continuous
 62
     7
370
    15
100
AcDbCircle
 10
-599.4729020755
 20
2145.3320243406
 30
0.0
 40
15.00000000000001
  0
LINE
  5
1F4
330
1F
100
AcDbEntity
  8
0
  6
Continuous
 62
     7
370
    15
100
AcDbLine
 10
-597.6820056598
 20
2143.8739341927
 30
0.0
 11
-599.8402004402
 21
2143.0520183883
 31
0.0
  0
LINE
  5
1F5
330
1F
100
AcDbEntity
  8
0
  6
Continuous
 62
     7
370
    15
100
AcDbLine
 10
-597.3147143882
 20
2146.1539402032
 30
0.0
 11
-597.6820056598
 21
2143.8739341927
 31
0.0
  0
LINE
  5
1F6
330
1F
100
AcDbEntity
  8
0
  6
Continuous
 62
     7
370
    15
100
AcDbLine
 10
-597.3147143882
 20
2146.1539402032
 30
0.0
 11
-599.1056029957
 21
2147.612030293
 31
0.0
  0
LINE
  5
1F7
330
1F
100
AcDbEntity
  8
0
  6
Continuous
 62
     7
370
    15
100
AcDbLine
 10
-601.263797776
 20
2146.7901144886
 30
0.0
 11
-599.1056029957
 21
2147.612030293
 31
0.0
  0
LINE
  5
1F8
330
1F
100
AcDbEntity
  8
0
  6
Continuous
 62
     7
370
    15
100
AcDbLine
 10
-601.6310964983
 20
2144.510108478
 30
0.0
 11
-599.8402004402
 21
2143.0520183883
 31
0.0
  0
LINE
  5
1F9
330
1F
100
AcDbEntity
  8
0
  6
Continuous
 62
     7
370
    15
100
AcDbLine
 10
-601.263797776
 20
2146.7901144886
 30
0.0
 11
-601.6310964983
 21
2144.510108478
 31
0.0
  0
LINE
  5
1FA
330
1F
100
AcDbEntity
  8
0
  6
Continuous
 62
     7
370
    15
100
AcDbLine
 10
1558.3687956173
 20
2144.510108478
 30
0.0
 11
1560.1597959835
 21
2143.0520183883
 31
0.0
  0
LINE
  5
1FB
330
1F
100
AcDbEntity
  8
0
  6
Continuous
 62
     7
370
    15
100
AcDbLine
 10
1562.3179609616
 20
2143.8739341927
 30
0.0
 11
1560.1597959835
 21
2143.0520183883
 31
0.0
  0
LINE
  5
1FC
330
1F
100
AcDbEntity
  8
0
  6
Continuous
 62
     7
370
    15
100
AcDbLine
 10
1562.685363992
 20
2146.1539402032
 30
0.0
 11
1562.3179609616
 21
2143.8739341927
 31
0.0
  0
LINE
  5
1FD
330
1F
100
AcDbEntity
  8
0
  6
Continuous
 62
     7
370
    15
100
AcDbLine
 10
1562.685363992
 20
2146.1539402032
 30
0.0
 11
1560.8943636257
 21
2147.612030293
 31
0.0
  0
LINE
  5
1FE
330
1F
100
AcDbEntity
  8
0
  6
Continuous
 62
     7
370
    15
100
AcDbLine
 10
1558.7361986477
 20
2146.7901144886
 30
0.0
 11
1560.8943636257
 21
2147.612030293
 31
0.0
  0
LINE
  5
1FF
330
1F
100
AcDbEntity
  8
0
  6
Continuous
 62
     7
370
    15
100
AcDbLine
 10
1558.7361986477
 20
2146.7901144886
 30
0.0
 11
1558.3687956173
 21
2144.510108478
 31
0.0
  0
CIRCLE
  5
200
330
1F
100
AcDbEntity
  8
0
  6
Continuous
 62
     7
370
    15
100
AcDbCircle
 10
1560.5270979245
 20
2145.3320243406
 30
0.0
 40
19.99999999999999
  0
CIRCLE
  5
201
330
1F
100
AcDbEntity
  8
0
  6
Continuous
 62
     7
370
    15
100
AcDbCircle
 10
-599.4729020755
 20
2145.3320243406
 30
0.0
 40
19.99999999999987
  0
ARC
  5
202
330
1F
100
AcDbEntity
  8
0
  6
Continuous
 62
     7
370
    15
100
AcDbCircle
 10
-533.4729020755
 20
2145.3320243406
 30
0.0
 40
14.99999999999969
100
AcDbArc
 50
56.4426902381
 51
123.5573097619
  0
ARC
  5
203
330
1F
100
AcDbEntity
  8
0
  6
Continuous
 62
     7
370
    15
100
AcDbCircle
 10
-533.4729020755
 20
2145.3320243406
 30
0.0
 40
14.99999999999931
100
AcDbArc
 50
236.4426902381
 51
303.5573097619
  0
ARC
  5
204
330
1F
100
AcDbEntity
  8
0
  6
Continuous
 62
     7
370
    15
100
AcDbCircle
 10
-533.4729020755
 20
2145.3320243406
 30
0.0
 40
30.0000000000001
100
AcDbArc
 50
238.8910774895
 51
335.3756816478
  0
ARC
  5
205
330
1F
100
AcDbEntity
  8
0
  6
Continuous
 62
     7
370
    15
100
AcDbCircle
 10
-533.4729020755
 20
2145.3320243406
 30
0.0
 40
30.00000000000008
100
AcDbArc
 50
24.6243183522
 51
95.3833504544
  0
ARC
  5
206
330
1F
100
AcDbEntity
  8
0
  6
Continuous
 62
     7
370
    15
100
AcDbCircle
 10
1506.5270979245
 20
2145.3320243406
 30
0.0
 40
14.99999999999988
100
AcDbArc
 50
56.4426902381
 51
123.5573097619
  0
ARC
  5
207
330
1F
100
AcDbEntity
  8
0
  6
Continuous
 62
     7
370
    15
100
AcDbCircle
 10
1506.5270979245
 20
2145.3320243406
 30
0.0
 40
14.99999999999937
100
AcDbArc
 50
236.4426902381
 51
303.5573097619
  0
ARC
  5
208
330
1F
100
AcDbEntity
  8
0
  6
Continuous
 62
     7
370
    15
100
AcDbCircle
 10
1506.5270979245
 20
2145.3320243406
 30
0.0
 40
30.00000000000005
100
AcDbArc
 50
204.6243183522
 51
335.3756816478
  0
ARC
  5
209
330
1F
100
AcDbEntity
  8
0
  6
Continuous
 62
     7
370
    15
100
AcDbCircle
 10
1506.5270979245
 20
2145.3320243406
 30
0.0
 40
30.00000000000043
100
AcDbArc
 50
24.6243183522
 51
155.3756816478
  0
ARC
  5
20A
330
1F
100
AcDbEntity
  8
0
  6
Continuous
 62
     7
370
    15
100
AcDbCircle
 10
-23.4729020755
 20
2145.3320243406
 30
0.0
 40
14.99999999999965
100
AcDbArc
 50
56.4426902381
 51
123.5573097619
  0
ARC
  5
20B
330
1F
100
AcDbEntity
  8
0
  6
Continuous
 62
     7
370
    15
100
AcDbCircle
 10
-23.4729020755
 20
2145.3320243406
 30
0.0
 40
14.99999999999959
100
AcDbArc
 50
236.4426902381
 51
303.5573097619
  0
ARC
  5
20C
330
1F
100
AcDbEntity
  8
0
  6
Continuous
 62
     7
370
    15
100
AcDbCircle
 10
-23.4729020755
 20
2145.3320243406
 30
0.0
 40
29.9999999999998
100
AcDbArc
 50
204.6243183522
 51
335.3756816478
  0
ARC
  5
20D
330
1F
100
AcDbEntity
  8
0
  6
Continuous
 62
     7
370
    15
100
AcDbCircle
 10
-23.4729020755
 20
2145.3320243406
 30
0.0
 40
29.99999999999999
100
AcDbArc
 50
24.6243183522
 51
155.3756816478
  0
ARC
  5
20E
330
1F
100
AcDbEntity
  8
0
  6
Continuous
 62
     7
370
    15
100
AcDbCircle
 10
996.5270979245
 20
2145.3320243406
 30
0.0
 40
14.99999999999969
100
AcDbArc
 50
56.4426902381
 51
123.5573097619
  0
ARC
  5
20F
330
1F
100
AcDbEntity
  8
0
  6
Continuous
 62
     7
370
    15
100
AcDbCircle
 10
996.5270979245
 20
2145.3320243406
 30
0.0
 40
14.99999999999931
100
AcDbArc
 50
236.4426902381
 51
303.5573097619
  0
ARC
  5
210
330
1F
100
AcDbEntity
  8
0
  6
Continuous
 62
     7
370
    15
100
AcDbCircle
 10
996.5270979245
 20
2145.3320243406
 30
0.0
 40
29.99999999999994
100
AcDbArc
 50
204.6243183522
 51
335.3756816478
  0
ARC
  5
211
330
1F
100
AcDbEntity
  8
0
  6
Continuous
 62
     7
370
    15
100
AcDbCircle
 10
996.5270979245
 20
2145.3320243406
 30
0.0
 40
30.00000000000003
100
AcDbArc
 50
24.6243183522
 51
155.3756816478
  0
ARC
  5
212
330
1F
100
AcDbEntity
  8
0
  6
Continuous
 62
     7
370
    15
100
AcDbCircle
 10
486.5270979245
 20
2145.3320243406
 30
0.0
 40
14.99999999999965
100
AcDbArc
 50
56.4426902381
 51
123.5573097619
  0
ARC
  5
213
330
1F
100
AcDbEntity
  8
0
  6
Continuous
 62
     7
370
    15
100
AcDbCircle
 10
486.5270979245
 20
2145.3320243406
 30
0.0
 40
14.99999999999927
100
AcDbArc
 50
236.4426902381
 51
303.5573097619
  0
ARC
  5
214
330
1F
100
AcDbEntity
  8
0
  6
Continuous
 62
     7
370
    15
100
AcDbCircle
 10
486.5270979245
 20
2145.3320243406
 30
0.0
 40
29.99999999999989
100
AcDbArc
 50
204.6243183522
 51
335.3756816478
  0
ARC
  5
215
330
1F
100
AcDbEntity
  8
0
  6
Continuous
 62
     7
370
    15
100
AcDbCircle
 10
486.5270979245
 20
2145.3320243406
 30
0.0
 40
30.00000000000003
100
AcDbArc
 50
24.6243183522
 51
155.3756816478
  0
LINE
  5
216
330
1F
100
AcDbEntity
  8
0
  6
Continuous
 62
     8
370
    15
100
AcDbLine
 10
250.81157039
 20
60.3319861937
 30
0.0
 11
250.7863576252
 21
54.331944232
 31
0.0
  0
LINE
  5
217
330
1F
100
AcDbEntity
  8
0
  6
Continuous
 62
     8
370
    15
100
AcDbLine
 10
277.2426540692
 20
60.3319861937
 30
0.0
 11
277.2678668339
 21
54.331944232
 31
0.0
  0
LINE
  5
218
330
1F
100
AcDbEntity
  8
0
  6
Continuous
 62
     7
370
    15
100
AcDbLine
 10
-540.9729019079
 20
-355.8637873953
 30
0.0
 11
-549.0675437536
 21
-355.8637873953
 31
0.0
  0
LINE
  5
219
330
1F
100
AcDbEntity
  8
0
  6
Continuous
 62
     7
370
    15
100
AcDbLine
 10
-578.8782601516
 20
-355.8637873953
 30
0.0
 11
-583.5510221582
 21
-355.8637873953
 31
0.0
  0
LINE
  5
21A
330
1F
100
AcDbEntity
  8
0
  6
Continuous
 62
     7
370
    15
100
AcDbLine
 10
-615.394785003
 20
-355.8637873953
 30
0.0
 11
-663.4728973072
 21
-355.8637873953
 31
0.0
  0
LINE
  5
21B
330
1F
100
AcDbEntity
  8
0
  6
Continuous
 62
     7
370
    15
100
AcDbLine
 10
-30.9729044597
 20
-355.8637873953
 30
0.0
 11
-525.9907640788
 21
-355.8637873953
 31
0.0
  0
LINE
  5
21C
330
1F
100
AcDbEntity
  8
0
  6
Continuous
 62
     7
370
    15
100
AcDbLine
 10
479.0271456082
 20
-355.8637873953
 30
0.0
 11
201.9324834187
 21
-355.8637873953
 31
0.0
  0
LINE
  5
21D
330
1F
100
AcDbEntity
  8
0
  6
Continuous
 62
     7
370
    15
100
AcDbLine
 10
172.1217567761
 20
-355.8637873953
 30
0.0
 11
-15.9907405536
 21
-355.8637873953
 31
0.0
  0
LINE
  5
21E
330
1F
100
AcDbEntity
  8
0
  6
Continuous
 62
     7
370
    15
100
AcDbLine
 10
989.0271360714
 20
-355.8637873953
 30
0.0
 11
494.0092499096
 21
-355.8637873953
 31
0.0
  0
LINE
  5
21F
330
1F
100
AcDbEntity
  8
0
  6
Continuous
 62
     7
370
    15
100
AcDbLine
 10
1499.0271265347
 20
-355.8637873953
 30
0.0
 11
1004.0092403729
 21
-355.8637873953
 31
0.0
  0
LINE
  5
220
330
1F
100
AcDbEntity
  8
0
  6
Continuous
 62
     7
370
    15
100
AcDbLine
 10
1636.5271742184
 20
-355.8637873953
 30
0.0
 11
1576.4490301449
 21
-355.8637873953
 31
0.0
  0
LINE
  5
221
330
1F
100
AcDbEntity
  8
0
  6
Continuous
 62
     7
370
    15
100
AcDbLine
 10
1544.6051294644
 20
-355.8637873953
 30
0.0
 11
1514.0093500454
 21
-355.8637873953
 31
0.0
  0
LINE
  5
222
330
1F
100
AcDbEntity
  8
0
  6
Continuous
 62
     7
370
    15
100
AcDbLine
 10
1514.0770609219
 20
-380.8637859052
 30
0.0
 11
1544.6439916928
 21
-380.8637859052
 31
0.0
  0
LINE
  5
223
330
1F
100
AcDbEntity
  8
0
  6
Continuous
 62
     7
370
    15
100
AcDbLine
 10
1576.4144594509
 20
-380.8637859052
 30
0.0
 11
1636.5271742184
 21
-380.8637859052
 31
0.0
  0
LINE
  5
224
330
1F
100
AcDbEntity
  8
0
  6
Continuous
 62
     7
370
    15
100
AcDbLine
 10
1004.0770704586
 20
-380.8637859052
 30
0.0
 11
1499.0090067227
 21
-380.8637859052
 31
0.0
  0
LINE
  5
225
330
1F
100
AcDbEntity
  8
0
  6
Continuous
 62
     7
370
    15
100
AcDbLine
 10
494.0770799954
 20
-380.8637859052
 30
0.0
 11
989.0090162594
 21
-380.8637859052
 31
0.0
  0
LINE
  5
226
330
1F
100
AcDbEntity
  8
0
  6
Continuous
 62
     7
370
    15
100
AcDbLine
 10
-15.9229104679
 20
-380.8637859052
 30
0.0
 11
172.0271046002
 21
-380.8637859052
 31
0.0
  0
LINE
  5
227
330
1F
100
AcDbEntity
  8
0
  6
Continuous
 62
     7
370
    15
100
AcDbLine
 10
202.0270759899
 20
-380.8637859052
 30
0.0
 11
479.0090257962
 21
-380.8637859052
 31
0.0
  0
LINE
  5
228
330
1F
100
AcDbEntity
  8
0
  6
Continuous
 62
     7
370
    15
100
AcDbLine
 10
-525.9229018625
 20
-380.8637859052
 30
0.0
 11
-30.9909646671
 21
-380.8637859052
 31
0.0
  0
LINE
  5
229
330
1F
100
AcDbEntity
  8
0
  6
Continuous
 62
     7
370
    15
100
AcDbLine
 10
-663.4728973072
 20
-380.8637859052
 30
0.0
 11
-615.356004731
 21
-380.8637859052
 31
0.0
  0
LINE
  5
22A
330
1F
100
AcDbEntity
  8
0
  6
Continuous
 62
     7
370
    15
100
AcDbLine
 10
-583.5854848187
 20
-380.8637859052
 30
0.0
 11
-578.9729011517
 21
-380.8637859052
 31
0.0
  0
LINE
  5
22B
330
1F
100
AcDbEntity
  8
0
  6
Continuous
 62
     7
370
    15
100
AcDbLine
 10
-548.9729018222
 20
-380.8637859052
 30
0.0
 11
-540.9909434888
 21
-380.8637859052
 31
0.0
  0
LINE
  5
22C
330
1F
100
AcDbEntity
  8
0
  6
Continuous
 62
     7
370
    15
100
AcDbLine
 10
1499.0771944363
 20
-380.8637859052
 30
0.0
 11
1500.077121957
 21
-381.8637879317
 31
0.0
  0
LINE
  5
22D
330
1F
100
AcDbEntity
  8
0
  6
Continuous
 62
     7
370
    15
100
AcDbLine
 10
1512.9769975979
 20
-381.8637879317
 30
0.0
 11
1513.9771635372
 21
-380.8637859052
 31
0.0
  0
LINE
  5
22E
330
1F
100
AcDbEntity
  8
0
  6
Continuous
 62
     7
370
    15
100
AcDbLine
 10
-540.9229019928
 20
-380.8637859052
 30
0.0
 11
-539.9229022946
 21
-381.8637879317
 31
0.0
  0
LINE
  5
22F
330
1F
100
AcDbEntity
  8
0
  6
Continuous
 62
     7
370
    15
100
AcDbLine
 10
-527.0229018565
 20
-381.8637879317
 30
0.0
 11
-526.0229021583
 21
-380.8637859052
 31
0.0
  0
LINE
  5
230
330
1F
100
AcDbEntity
  8
0
  6
Continuous
 62
     7
370
    15
100
AcDbLine
 10
479.0770943005
 20
-380.8637859052
 30
0.0
 11
480.0771410305
 21
-381.8637879317
 31
0.0
  0
LINE
  5
231
330
1F
100
AcDbEntity
  8
0
  6
Continuous
 62
     7
370
    15
100
AcDbLine
 10
492.9771358807
 20
-381.8637879317
 30
0.0
 11
493.9770634014
 21
-380.8637859052
 31
0.0
  0
LINE
  5
232
330
1F
100
AcDbEntity
  8
0
  6
Continuous
 62
     7
370
    15
100
AcDbLine
 10
-30.9228961628
 20
-380.8637859052
 30
0.0
 11
-29.9229090374
 21
-381.8637879317
 31
0.0
  0
LINE
  5
233
330
1F
100
AcDbEntity
  8
0
  6
Continuous
 62
     7
370
    15
100
AcDbLine
 10
-17.0229141872
 20
-381.8637879317
 30
0.0
 11
-16.0229270618
 21
-380.8637859052
 31
0.0
  0
LINE
  5
234
330
1F
100
AcDbEntity
  8
0
  6
Continuous
 62
     7
370
    15
100
AcDbLine
 10
989.0770847637
 20
-380.8637859052
 30
0.0
 11
990.0771314938
 21
-381.8637879317
 31
0.0
  0
LINE
  5
235
330
1F
100
AcDbEntity
  8
0
  6
Continuous
 62
     7
370
    15
100
AcDbLine
 10
1002.9771263439
 20
-381.8637879317
 30
0.0
 11
1003.9770538647
 21
-380.8637859052
 31
0.0
  0
LINE
  5
236
330
1F
100
AcDbEntity
  8
0
  6
Continuous
 62
     7
370
    15
100
AcDbLine
 10
172.0271046002
 20
-356.0337872928
 30
0.0
 11
172.0271046002
 21
-357.1637870496
 31
0.0
  0
LINE
  5
237
330
1F
100
AcDbEntity
  8
0
  6
Continuous
 62
     7
370
    15
100
AcDbLine
 10
202.0270759899
 20
-357.1637870496
 30
0.0
 11
202.0270759899
 21
-356.0337872928
 31
0.0
  0
ARC
  5
238
330
1F
100
AcDbEntity
  8
0
  6
Continuous
 62
     7
370
    15
100
AcDbCircle
 10
201.8270979244
 20
-356.0337866658
 30
0.0
 40
0.2000000000000274
100
AcDbArc
 50
0.0
 51
80.7694259592
  0
ARC
  5
239
330
1F
100
AcDbEntity
  8
0
  6
Continuous
 62
     7
370
    15
100
AcDbCircle
 10
172.2270979244
 20
-356.0337866658
 30
0.0
 40
0.2000000000000274
100
AcDbArc
 50
99.2305740408
 51
180.0
  0
ARC
  5
23A
330
1F
100
AcDbEntity
  8
0
  6
Continuous
 62
     7
370
    15
100
AcDbCircle
 10
172.2270979244
 20
-357.1637875145
 30
0.0
 40
0.2000000000000455
100
AcDbArc
 50
180.0
 51
270.0
  0
ARC
  5
23B
330
1F
100
AcDbEntity
  8
0
  6
Continuous
 62
     7
370
    15
100
AcDbCircle
 10
201.8270979244
 20
-357.1637875145
 30
0.0
 40
0.1999999999999886
100
AcDbArc
 50
270.0
 51
0.0
  0
ARC
  5
23C
330
1F
100
AcDbEntity
  8
0
  6
Continuous
 62
     7
370
    15
100
AcDbCircle
 10
182.6102293162
 20
-474.2824735968
 30
0.0
 40
120.0
100
AcDbArc
 50
80.7694259592
 51
86.6345808759
  0
ARC
  5
23D
330
1F
100
AcDbEntity
  8
0
  6
Continuous
 62
     7
370
    15
100
AcDbCircle
 10
191.4439665327
 20
-474.2824735968
 30
0.0
 40
120.0000000000001
100
AcDbArc
 50
93.3646779168
 51
99.2305740408
  0
ARC
  5
23E
330
1F
100
AcDbEntity
  8
0
  6
Continuous
 62
     7
370
    15
100
AcDbCircle
 10
177.0770979244
 20
-357.5637875145
 30
0.0
 40
0.1999999999999602
100
AcDbArc
 50
0.0
 51
90.0
  0
ARC
  5
23F
330
1F
100
AcDbEntity
  8
0
  6
Continuous
 62
     7
370
    15
100
AcDbCircle
 10
196.9770979244
 20
-357.5637875145
 30
0.0
 40
0.1999999999999886
100
AcDbArc
 50
90.0
 51
180.0
  0
LINE
  5
240
330
1F
100
AcDbEntity
  8
0
  6
Continuous
 62
     7
370
    15
100
AcDbLine
 10
177.277081712
 20
-357.5637882328
 30
0.0
 11
177.277081712
 21
-357.8637877231
 31
0.0
  0
LINE
  5
241
330
1F
100
AcDbEntity
  8
0
  6
Continuous
 62
     7
370
    15
100
AcDbLine
 10
196.7770988781
 20
-357.8637877231
 30
0.0
 11
196.7770988781
 21
-357.5637882328
 31
0.0
  0
LINE
  5
242
330
1F
100
AcDbEntity
  8
0
  6
Continuous
 62
     7
370
    15
100
AcDbLine
 10
-578.9729011517
 20
-356.0337872928
 30
0.0
 11
-578.9729011517
 21
-357.1637870496
 31
0.0
  0
LINE
  5
243
330
1F
100
AcDbEntity
  8
0
  6
Continuous
 62
     7
370
    15
100
AcDbLine
 10
-548.9729018222
 20
-357.1637870496
 30
0.0
 11
-548.9729018222
 21
-356.0337872928
 31
0.0
  0
ARC
  5
244
330
1F
100
AcDbEntity
  8
0
  6
Continuous
 62
     7
370
    15
100
AcDbCircle
 10
-549.1729020756
 20
-356.0337866658
 30
0.0
 40
0.2000000000000455
100
AcDbArc
 50
0.0
 51
80.7694259592
  0
ARC
  5
245
330
1F
100
AcDbEntity
  8
0
  6
Continuous
 62
     7
370
    15
100
AcDbCircle
 10
-578.7729020755
 20
-356.0337866658
 30
0.0
 40
0.2000000000000593
100
AcDbArc
 50
99.2305740409
 51
180.0
  0
ARC
  5
246
330
1F
100
AcDbEntity
  8
0
  6
Continuous
 62
     7
370
    15
100
AcDbCircle
 10
-578.7729020755
 20
-357.1637875145
 30
0.0
 40
0.2000000000000455
100
AcDbArc
 50
180.0
 51
270.0
  0
ARC
  5
247
330
1F
100
AcDbEntity
  8
0
  6
Continuous
 62
     7
370
    15
100
AcDbCircle
 10
-549.1729020756
 20
-357.1637875145
 30
0.0
 40
0.2000000000000455
100
AcDbArc
 50
270.0
 51
0.0
  0
ARC
  5
248
330
1F
100
AcDbEntity
  8
0
  6
Continuous
 62
     7
370
    15
100
AcDbCircle
 10
-568.3897706838
 20
-474.2824735968
 30
0.0
 40
120.0
100
AcDbArc
 50
80.7694259592
 51
86.6345808759
  0
ARC
  5
249
330
1F
100
AcDbEntity
  8
0
  6
Continuous
 62
     7
370
    15
100
AcDbCircle
 10
-559.5560334673
 20
-474.2824735968
 30
0.0
 40
120.0
100
AcDbArc
 50
93.3646779168
 51
99.2305740408
  0
ARC
  5
24A
330
1F
100
AcDbEntity
  8
0
  6
Continuous
 62
     7
370
    15
100
AcDbCircle
 10
-573.9229020755
 20
-357.5637875145
 30
0.0
 40
0.1999999999999886
100
AcDbArc
 50
0.0
 51
90.0
  0
ARC
  5
24B
330
1F
100
AcDbEntity
  8
0
  6
Continuous
 62
     7
370
    15
100
AcDbCircle
 10
-554.0229020756
 20
-357.5637875145
 30
0.0
 40
0.1999999999999886
100
AcDbArc
 50
90.0
 51
180.0
  0
LINE
  5
24C
330
1F
100
AcDbEntity
  8
0
  6
Continuous
 62
     7
370
    15
100
AcDbLine
 10
-573.7229016881
 20
-357.5637882328
 30
0.0
 11
-573.7229016881
 21
-357.8637877231
 31
0.0
  0
LINE
  5
24D
330
1F
100
AcDbEntity
  8
0
  6
Continuous
 62
     7
370
    15
100
AcDbLine
 10
-554.2229012858
 20
-357.8637877231
 30
0.0
 11
-554.2229012858
 21
-357.5637882328
 31
0.0
  0
LINE
  5
24E
330
1F
100
AcDbEntity
  8
0
  6
Continuous
 62
     7
370
    15
100
AcDbLine
 10
-551.4729013007
 20
-392.6954010254
 30
0.0
 11
-551.4729013007
 21
-391.3637885576
 31
0.0
  0
LINE
  5
24F
330
1F
100
AcDbEntity
  8
0
  6
Continuous
 62
     7
370
    15
100
AcDbLine
 10
-576.4729035359
 20
-391.3637885576
 30
0.0
 11
-576.4729035359
 21
-392.6954010254
 31
0.0
  0
ARC
  5
250
330
1F
100
AcDbEntity
  8
0
  6
Continuous
 62
     7
370
    15
100
AcDbCircle
 10
-576.2729020755
 20
-392.6954002168
 30
0.0
 40
0.2000000000000481
100
AcDbArc
 50
180.0
 51
260.2307482568
  0
ARC
  5
251
330
1F
100
AcDbEntity
  8
0
  6
Continuous
 62
     7
370
    15
100
AcDbCircle
 10
-551.6729020755
 20
-392.6954002168
 30
0.0
 40
0.2000000000000481
100
AcDbArc
 50
279.7692517432
 51
0.0
  0
ARC
  5
252
330
1F
100
AcDbEntity
  8
0
  6
Continuous
 62
     7
370
    15
100
AcDbCircle
 10
-555.945160525
 20
-274.6326079263
 30
0.0
 40
120.0
100
AcDbArc
 50
260.2307482568
 51
266.16417102
  0
ARC
  5
253
330
1F
100
AcDbEntity
  8
0
  6
Continuous
 62
     7
370
    15
100
AcDbCircle
 10
-572.0006436261
 20
-274.6326079263
 30
0.0
 40
120.0
100
AcDbArc
 50
273.83582898
 51
279.7692517432
  0
LINE
  5
254
330
1F
100
AcDbEntity
  8
0
  6
Continuous
 62
     7
370
    15
100
AcDbLine
 10
199.5270783741
 20
-392.6954010254
 30
0.0
 11
199.5270783741
 21
-391.3637885576
 31
0.0
  0
LINE
  5
255
330
1F
100
AcDbEntity
  8
0
  6
Continuous
 62
     7
370
    15
100
AcDbLine
 10
174.527102216
 20
-391.3637885576
 30
0.0
 11
174.527102216
 21
-392.6954010254
 31
0.0
  0
ARC
  5
256
330
1F
100
AcDbEntity
  8
0
  6
Continuous
 62
     7
370
    15
100
AcDbCircle
 10
174.7270979244
 20
-392.6954002168
 30
0.0
 40
0.2000000000000018
100
AcDbArc
 50
180.0
 51
260.2307482568
  0
ARC
  5
257
330
1F
100
AcDbEntity
  8
0
  6
Continuous
 62
     7
370
    15
100
AcDbCircle
 10
199.3270979244
 20
-392.6954002168
 30
0.0
 40
0.2000000000000578
100
AcDbArc
 50
279.7692517432
 51
0.0
  0
ARC
  5
258
330
1F
100
AcDbEntity
  8
0
  6
Continuous
 62
     7
370
    15
100
AcDbCircle
 10
195.054839475
 20
-274.6326079263
 30
0.0
 40
120.0
100
AcDbArc
 50
260.2307482568
 51
266.16417102
  0
ARC
  5
259
330
1F
100
AcDbEntity
  8
0
  6
Continuous
 62
     7
370
    15
100
AcDbCircle
 10
178.9993563739
 20
-274.6326079263
 30
0.0
 40
120.0
100
AcDbArc
 50
273.83582898
 51
279.7692517432
  0
LINE
  5
25A
330
1F
100
AcDbEntity
  8
0
  6
Continuous
 62
     7
370
    15
100
AcDbLine
 10
158.0271060307
 20
-357.8637877231
 30
0.0
 11
158.0271060307
 21
-359.3637870377
 31
0.0
  0
LINE
  5
25B
330
1F
100
AcDbEntity
  8
0
  6
Continuous
 62
     7
370
    15
100
AcDbLine
 10
216.0270745594
 20
-359.3637870377
 30
0.0
 11
216.0270745594
 21
-357.8637877231
 31
0.0
  0
LINE
  5
25C
330
1F
100
AcDbEntity
  8
0
  6
Continuous
 62
     7
370
    15
100
AcDbLine
 10
-534.9729020886
 20
-378.8637893027
 30
0.0
 11
-534.9729020886
 21
-377.3637862628
 31
0.0
  0
LINE
  5
25D
330
1F
100
AcDbEntity
  8
0
  6
Continuous
 62
     7
370
    15
100
AcDbLine
 10
-592.9729034465
 20
-377.3637862628
 30
0.0
 11
-592.9729034465
 21
-378.8637893027
 31
0.0
  0
LINE
  5
25E
330
1F
100
AcDbEntity
  8
0
  6
Continuous
 62
     7
370
    15
100
AcDbLine
 10
216.0270745594
 20
-378.8637893027
 30
0.0
 11
216.0270745594
 21
-377.3637862628
 31
0.0
  0
LINE
  5
25F
330
1F
100
AcDbEntity
  8
0
  6
Continuous
 62
     7
370
    15
100
AcDbLine
 10
158.0271060307
 20
-377.3637862628
 30
0.0
 11
158.0271060307
 21
-378.8637893027
 31
0.0
  0
LINE
  5
260
330
1F
100
AcDbEntity
  8
0
  6
Continuous
 62
     7
370
    15
100
AcDbLine
 10
-592.9729034465
 20
-357.8637877231
 30
0.0
 11
-592.9729034465
 21
-359.3637870377
 31
0.0
  0
LINE
  5
261
330
1F
100
AcDbEntity
  8
0
  6
Continuous
 62
     7
370
    15
100
AcDbLine
 10
-534.9729020886
 20
-359.3637870377
 30
0.0
 11
-534.9729020886
 21
-357.8637877231
 31
0.0
  0
LINE
  5
262
330
1F
100
AcDbEntity
  8
0
  6
Continuous
 62
     7
370
    15
100
AcDbLine
 10
216.0270745594
 20
-360.3842166936
 30
0.0
 11
216.0270745594
 21
-359.3637870377
 31
0.0
  0
LINE
  5
263
330
1F
100
AcDbEntity
  8
0
  6
Continuous
 62
     7
370
    15
100
AcDbLine
 10
158.0271060307
 20
-359.3637870377
 30
0.0
 11
158.0271060307
 21
-360.3842166936
 31
0.0
  0
ARC
  5
264
330
1F
100
AcDbEntity
  8
0
  6
Continuous
 62
     7
370
    15
100
AcDbCircle
 10
225.6270979244
 20
-368.3898389378
 30
0.0
 40
12.50000000000001
100
AcDbArc
 50
140.1746287392
 51
219.8253712608
  0
ARC
  5
265
330
1F
100
AcDbEntity
  8
0
  6
Continuous
 62
     7
370
    15
100
AcDbCircle
 10
148.4270979244
 20
-368.3898389378
 30
0.0
 40
12.49999999999997
100
AcDbArc
 50
320.1746287392
 51
39.8253712608
  0
LINE
  5
266
330
1F
100
AcDbEntity
  8
0
  6
Continuous
 62
     7
370
    15
100
AcDbLine
 10
216.0270745594
 20
-377.3637862628
 30
0.0
 11
216.0270745594
 21
-376.3954603797
 31
0.0
  0
LINE
  5
267
330
1F
100
AcDbEntity
  8
0
  6
Continuous
 62
     7
370
    15
100
AcDbLine
 10
158.0271060307
 20
-376.3954603797
 30
0.0
 11
158.0271060307
 21
-377.3637862628
 31
0.0
  0
LINE
  5
268
330
1F
100
AcDbEntity
  8
0
  6
Continuous
 62
     7
370
    15
100
AcDbLine
 10
-534.9729020886
 20
-360.3842166936
 30
0.0
 11
-534.9729020886
 21
-359.3637870377
 31
0.0
  0
LINE
  5
269
330
1F
100
AcDbEntity
  8
0
  6
Continuous
 62
     7
370
    15
100
AcDbLine
 10
-592.9729034465
 20
-359.3637870377
 30
0.0
 11
-592.9729034465
 21
-360.3842166936
 31
0.0
  0
ARC
  5
26A
330
1F
100
AcDbEntity
  8
0
  6
Continuous
 62
     7
370
    15
100
AcDbCircle
 10
-525.3729020755
 20
-368.3898389378
 30
0.0
 40
12.50000000000004
100
AcDbArc
 50
140.1746287392
 51
219.8253712608
  0
ARC
  5
26B
330
1F
100
AcDbEntity
  8
0
  6
Continuous
 62
     7
370
    15
100
AcDbCircle
 10
-602.5729020755
 20
-368.3898389378
 30
0.0
 40
12.50000000000004
100
AcDbArc
 50
320.1746287392
 51
39.8253712608
  0
LINE
  5
26C
330
1F
100
AcDbEntity
  8
0
  6
Continuous
 62
     7
370
    15
100
AcDbLine
 10
-534.9729020886
 20
-377.3637862628
 30
0.0
 11
-534.9729020886
 21
-376.3954603797
 31
0.0
  0
LINE
  5
26D
330
1F
100
AcDbEntity
  8
0
  6
Continuous
 62
     7
370
    15
100
AcDbLine
 10
-592.9729034465
 20
-376.3954603797
 30
0.0
 11
-592.9729034465
 21
-377.3637862628
 31
0.0
  0
LINE
  5
26E
330
1F
100
AcDbEntity
  8
0
  6
Continuous
 62
     7
370
    15
100
AcDbLine
 10
202.0270759899
 20
-385.0637862211
 30
0.0
 11
202.0270759899
 21
-379.6637879437
 31
0.0
  0
LINE
  5
26F
330
1F
100
AcDbEntity
  8
0
  6
Continuous
 62
     7
370
    15
100
AcDbLine
 10
172.0271046002
 20
-379.6637879437
 30
0.0
 11
172.0271046002
 21
-385.0637862211
 31
0.0
  0
LINE
  5
270
330
1F
100
AcDbEntity
  8
0
  6
Continuous
 62
     7
370
    15
100
AcDbLine
 10
202.0270759899
 20
-379.6637879437
 30
0.0
 11
201.7270858128
 21
-379.3637865906
 31
0.0
  0
LINE
  5
271
330
1F
100
AcDbEntity
  8
0
  6
Continuous
 62
     7
370
    15
100
AcDbLine
 10
172.3270947773
 20
-379.3637865906
 30
0.0
 11
172.0271046002
 21
-379.6637879437
 31
0.0
  0
LINE
  5
272
330
1F
100
AcDbEntity
  8
0
  6
Continuous
 62
     7
370
    15
100
AcDbLine
 10
172.0271046002
 20
-385.0637862211
 30
0.0
 11
172.3270947773
 21
-385.3637875741
 31
0.0
  0
LINE
  5
273
330
1F
100
AcDbEntity
  8
0
  6
Continuous
 62
     7
370
    15
100
AcDbLine
 10
201.7270858128
 20
-385.3637875741
 30
0.0
 11
202.0270759899
 21
-385.0637862211
 31
0.0
  0
LINE
  5
274
330
1F
100
AcDbEntity
  8
0
  6
Continuous
 62
     7
370
    15
100
AcDbLine
 10
196.7770988781
 20
-379.3637865906
 30
0.0
 11
196.7770988781
 21
-378.8637893027
 31
0.0
  0
LINE
  5
275
330
1F
100
AcDbEntity
  8
0
  6
Continuous
 62
     7
370
    15
100
AcDbLine
 10
177.277081712
 20
-378.8637893027
 30
0.0
 11
177.277081712
 21
-379.3637865906
 31
0.0
  0
LINE
  5
276
330
1F
100
AcDbEntity
  8
0
  6
Continuous
 62
     7
370
    15
100
AcDbLine
 10
-548.9729018222
 20
-385.0637862211
 30
0.0
 11
-548.9729018222
 21
-379.6637879437
 31
0.0
  0
LINE
  5
277
330
1F
100
AcDbEntity
  8
0
  6
Continuous
 62
     7
370
    15
100
AcDbLine
 10
-578.9729011517
 20
-379.6637879437
 30
0.0
 11
-578.9729011517
 21
-385.0637862211
 31
0.0
  0
LINE
  5
278
330
1F
100
AcDbEntity
  8
0
  6
Continuous
 62
     7
370
    15
100
AcDbLine
 10
-548.9729018222
 20
-379.6637879437
 30
0.0
 11
-549.2729013126
 21
-379.3637865906
 31
0.0
  0
LINE
  5
279
330
1F
100
AcDbEntity
  8
0
  6
Continuous
 62
     7
370
    15
100
AcDbLine
 10
-578.6729035239
 20
-379.3637865906
 30
0.0
 11
-578.9729011517
 21
-379.6637879437
 31
0.0
  0
LINE
  5
27A
330
1F
100
AcDbEntity
  8
0
  6
Continuous
 62
     7
370
    15
100
AcDbLine
 10
-578.9729011517
 20
-385.0637862211
 30
0.0
 11
-578.6729035239
 21
-385.3637875741
 31
0.0
  0
LINE
  5
27B
330
1F
100
AcDbEntity
  8
0
  6
Continuous
 62
     7
370
    15
100
AcDbLine
 10
-549.2729013126
 20
-385.3637875741
 30
0.0
 11
-548.9729018222
 21
-385.0637862211
 31
0.0
  0
LINE
  5
27C
330
1F
100
AcDbEntity
  8
0
  6
Continuous
 62
     7
370
    15
100
AcDbLine
 10
-554.2229012858
 20
-379.3637865906
 30
0.0
 11
-554.2229012858
 21
-378.8637893027
 31
0.0
  0
LINE
  5
27D
330
1F
100
AcDbEntity
  8
0
  6
Continuous
 62
     7
370
    15
100
AcDbLine
 10
-573.7229016881
 20
-378.8637893027
 30
0.0
 11
-573.7229016881
 21
-379.3637865906
 31
0.0
  0
LINE
  5
27E
330
1F
100
AcDbEntity
  8
0
  6
Continuous
 62
     7
370
    15
100
AcDbLine
 10
1575.5270654995
 20
-394.293788982
 30
0.0
 11
1575.5270654995
 21
-392.9637858396
 31
0.0
  0
LINE
  5
27F
330
1F
100
AcDbEntity
  8
0
  6
Continuous
 62
     7
370
    15
100
AcDbLine
 10
1545.5270941098
 20
-392.9637858396
 30
0.0
 11
1545.5270941098
 21
-394.293788982
 31
0.0
  0
ARC
  5
280
330
1F
100
AcDbEntity
  8
0
  6
Continuous
 62
     7
370
    15
100
AcDbCircle
 10
1545.7270979245
 20
-394.2937883632
 30
0.0
 40
0.2000000000000455
100
AcDbArc
 50
180.0
 51
260.7694259591
  0
ARC
  5
281
330
1F
100
AcDbEntity
  8
0
  6
Continuous
 62
     7
370
    15
100
AcDbCircle
 10
1575.3270979245
 20
-394.2937883632
 30
0.0
 40
0.1999999999999668
100
AcDbArc
 50
279.2305740408
 51
0.0
  0
ARC
  5
282
330
1F
100
AcDbEntity
  8
0
  6
Continuous
 62
     7
370
    15
100
AcDbCircle
 10
1564.9439665327
 20
-276.0451014322
 30
0.0
 40
120.0
100
AcDbArc
 50
260.7694259592
 51
266.5831083863
  0
ARC
  5
283
330
1F
100
AcDbEntity
  8
0
  6
Continuous
 62
     7
370
    15
100
AcDbCircle
 10
1556.1102293162
 20
-276.0451014322
 30
0.0
 40
120.0
100
AcDbArc
 50
273.4163951255
 51
279.2305740408
  0
LINE
  5
284
330
1F
100
AcDbEntity
  8
0
  6
Continuous
 62
     7
370
    15
100
AcDbLine
 10
-584.4729011219
 20
-394.293788982
 30
0.0
 11
-584.4729011219
 21
-392.9637858396
 31
0.0
  0
LINE
  5
285
330
1F
100
AcDbEntity
  8
0
  6
Continuous
 62
     7
370
    15
100
AcDbLine
 10
-614.472902314
 20
-392.9637858396
 30
0.0
 11
-614.472902314
 21
-394.293788982
 31
0.0
  0
ARC
  5
286
330
1F
100
AcDbEntity
  8
0
  6
Continuous
 62
     7
370
    15
100
AcDbCircle
 10
-614.2729020755
 20
-394.2937883632
 30
0.0
 40
0.2000000000000455
100
AcDbArc
 50
180.0
 51
260.7694259592
  0
ARC
  5
287
330
1F
100
AcDbEntity
  8
0
  6
Continuous
 62
     7
370
    15
100
AcDbCircle
 10
-584.6729020755
 20
-394.2937883632
 30
0.0
 40
0.2000000000000455
100
AcDbArc
 50
279.2305740408
 51
0.0
  0
ARC
  5
288
330
1F
100
AcDbEntity
  8
0
  6
Continuous
 62
     7
370
    15
100
AcDbCircle
 10
-595.0560334673
 20
-276.0451014322
 30
0.0
 40
120.0
100
AcDbArc
 50
260.7694259592
 51
266.5831083863
  0
ARC
  5
289
330
1F
100
AcDbEntity
  8
0
  6
Continuous
 62
     7
370
    15
100
AcDbCircle
 10
-603.8897706838
 20
-276.0451014322
 30
0.0
 40
120.0
100
AcDbArc
 50
273.4163951255
 51
279.2305740408
  0
LINE
  5
28A
330
1F
100
AcDbEntity
  8
0
  6
Continuous
 62
     7
370
    15
100
AcDbLine
 10
1540.5269796688
 20
-384.9637882536
 30
0.0
 11
1540.5269796688
 21
-392.9637858396
 31
0.0
  0
LINE
  5
28B
330
1F
100
AcDbEntity
  8
0
  6
Continuous
 62
     7
370
    15
100
AcDbLine
 10
1580.5271799404
 20
-392.9637858396
 30
0.0
 11
1580.5271799404
 21
-384.9637882536
 31
0.0
  0
LINE
  5
28C
330
1F
100
AcDbEntity
  8
0
  6
Continuous
 62
     7
370
    15
100
AcDbLine
 10
-619.4729049962
 20
-384.9637882536
 30
0.0
 11
-619.4729049962
 21
-392.9637858396
 31
0.0
  0
LINE
  5
28D
330
1F
100
AcDbEntity
  8
0
  6
Continuous
 62
     7
370
    15
100
AcDbLine
 10
-579.472902165
 20
-392.9637858396
 30
0.0
 11
-579.472902165
 21
-384.9637882536
 31
0.0
  0
LINE
  5
28E
330
1F
100
AcDbEntity
  8
0
  6
Continuous
 62
     7
370
    15
100
AcDbLine
 10
-583.4729028206
 20
-354.1637884205
 30
0.0
 11
-585.2729034882
 21
-352.3637877529
 31
0.0
  0
LINE
  5
28F
330
1F
100
AcDbEntity
  8
0
  6
Continuous
 62
     7
370
    15
100
AcDbLine
 10
-613.672903673
 20
-352.3637877529
 30
0.0
 11
-615.4729043405
 21
-354.1637884205
 31
0.0
  0
LINE
  5
290
330
1F
100
AcDbEntity
  8
0
  6
Continuous
 62
     7
370
    15
100
AcDbLine
 10
-615.4729043405
 20
-380.8637859052
 30
0.0
 11
-615.4729043405
 21
-384.9637882536
 31
0.0
  0
LINE
  5
291
330
1F
100
AcDbEntity
  8
0
  6
Continuous
 62
     7
370
    15
100
AcDbLine
 10
-615.4729043405
 20
-354.1637884205
 30
0.0
 11
-615.4729043405
 21
-355.7637875652
 31
0.0
  0
LINE
  5
292
330
1F
100
AcDbEntity
  8
0
  6
Continuous
 62
     7
370
    15
100
AcDbLine
 10
-583.4729028206
 20
-355.7637875652
 30
0.0
 11
-583.4729028206
 21
-354.1637884205
 31
0.0
  0
LINE
  5
293
330
1F
100
AcDbEntity
  8
0
  6
Continuous
 62
     7
370
    15
100
AcDbLine
 10
-583.4729028206
 20
-384.9637882536
 30
0.0
 11
-583.4729028206
 21
-380.8637859052
 31
0.0
  0
LINE
  5
294
330
1F
100
AcDbEntity
  8
0
  6
Continuous
 62
     7
370
    15
100
AcDbLine
 10
1576.5269930203
 20
-354.1637884205
 30
0.0
 11
1574.7271711666
 21
-352.3637877529
 31
0.0
  0
LINE
  5
295
330
1F
100
AcDbEntity
  8
0
  6
Continuous
 62
     7
370
    15
100
AcDbLine
 10
1546.3269884426
 20
-352.3637877529
 30
0.0
 11
1544.527166589
 21
-354.1637884205
 31
0.0
  0
LINE
  5
296
330
1F
100
AcDbEntity
  8
0
  6
Continuous
 62
     7
370
    15
100
AcDbLine
 10
1544.527166589
 20
-380.8637859052
 30
0.0
 11
1544.527166589
 21
-384.9637882536
 31
0.0
  0
LINE
  5
297
330
1F
100
AcDbEntity
  8
0
  6
Continuous
 62
     7
370
    15
100
AcDbLine
 10
1544.527166589
 20
-354.1637884205
 30
0.0
 11
1544.527166589
 21
-355.7637875652
 31
0.0
  0
LINE
  5
298
330
1F
100
AcDbEntity
  8
0
  6
Continuous
 62
     7
370
    15
100
AcDbLine
 10
1576.5269930203
 20
-355.7637875652
 30
0.0
 11
1576.5269930203
 21
-354.1637884205
 31
0.0
  0
LINE
  5
299
330
1F
100
AcDbEntity
  8
0
  6
Continuous
 62
     7
370
    15
100
AcDbLine
 10
1576.5269930203
 20
-384.9637882536
 30
0.0
 11
1576.5269930203
 21
-380.8637859052
 31
0.0
  0
LINE
  5
29A
330
1F
100
AcDbEntity
  8
0
  6
Continuous
 62
     7
370
    15
100
AcDbLine
 10
-540.9729019079
 20
-337.8637877045
 30
0.0
 11
-540.9729019079
 21
-355.8637873953
 31
0.0
  0
LINE
  5
29B
330
1F
100
AcDbEntity
  8
0
  6
Continuous
 62
     7
370
    15
100
AcDbLine
 10
-525.9729022432
 20
-355.8637873953
 30
0.0
 11
-525.9729022432
 21
-337.8637877045
 31
0.0
  0
LINE
  5
29C
330
1F
100
AcDbEntity
  8
0
  6
Continuous
 62
     7
370
    15
100
AcDbLine
 10
-30.9729044597
 20
-337.8637877045
 30
0.0
 11
-30.9729044597
 21
-355.8637873953
 31
0.0
  0
LINE
  5
29D
330
1F
100
AcDbEntity
  8
0
  6
Continuous
 62
     7
370
    15
100
AcDbLine
 10
-15.9729187649
 20
-355.8637873953
 30
0.0
 11
-15.9729187649
 21
-337.8637877045
 31
0.0
  0
LINE
  5
29E
330
1F
100
AcDbEntity
  8
0
  6
Continuous
 62
     7
370
    15
100
AcDbLine
 10
989.0271360714
 20
-337.8637877045
 30
0.0
 11
989.0271360714
 21
-355.8637873953
 31
0.0
  0
LINE
  5
29F
330
1F
100
AcDbEntity
  8
0
  6
Continuous
 62
     7
370
    15
100
AcDbLine
 10
1004.0271217663
 20
-355.8637873953
 30
0.0
 11
1004.0271217663
 21
-337.8637877045
 31
0.0
  0
LINE
  5
2A0
330
1F
100
AcDbEntity
  8
0
  6
Continuous
 62
     7
370
    15
100
AcDbLine
 10
1499.0271265347
 20
-337.8637877045
 30
0.0
 11
1499.0271265347
 21
-355.8637873953
 31
0.0
  0
LINE
  5
2A1
330
1F
100
AcDbEntity
  8
0
  6
Continuous
 62
     7
370
    15
100
AcDbLine
 10
1514.0269930203
 20
-355.8637873953
 30
0.0
 11
1514.0269930203
 21
-337.8637877045
 31
0.0
  0
LINE
  5
2A2
330
1F
100
AcDbEntity
  8
0
  6
Continuous
 62
     7
370
    15
100
AcDbLine
 10
479.0271456082
 20
-337.8637877045
 30
0.0
 11
479.0271456082
 21
-355.8637873953
 31
0.0
  0
LINE
  5
2A3
330
1F
100
AcDbEntity
  8
0
  6
Continuous
 62
     7
370
    15
100
AcDbLine
 10
494.0271313031
 20
-355.8637873953
 30
0.0
 11
494.0271313031
 21
-337.8637877045
 31
0.0
  0
LINE
  5
2A4
330
1F
100
AcDbEntity
  8
0
  6
Continuous
 62
     7
370
    15
100
AcDbLine
 10
-563.472901405
 20
-333.8637875145
 30
0.0
 11
-563.472901405
 21
-335.8637876095
 31
0.0
  0
LINE
  5
2A5
330
1F
100
AcDbEntity
  8
0
  6
Continuous
 62
     7
370
    15
100
AcDbLine
 10
-503.4729027461
 20
-335.8637876095
 30
0.0
 11
-503.4729027461
 21
-333.8637875145
 31
0.0
  0
LINE
  5
2A6
330
1F
100
AcDbEntity
  8
0
  6
Continuous
 62
     7
370
    15
100
AcDbLine
 10
-563.472901405
 20
-335.8637876095
 30
0.0
 11
-548.4729017403
 21
-337.8637877045
 31
0.0
  0
LINE
  5
2A7
330
1F
100
AcDbEntity
  8
0
  6
Continuous
 62
     7
370
    15
100
AcDbLine
 10
-518.4729024108
 20
-337.8637877045
 30
0.0
 11
-503.4729027461
 21
-335.8637876095
 31
0.0
  0
LINE
  5
2A8
330
1F
100
AcDbEntity
  8
0
  6
Continuous
 62
     7
370
    15
100
AcDbLine
 10
1476.5270883877
 20
-333.8637875145
 30
0.0
 11
1476.5270883877
 21
-335.8637876095
 31
0.0
  0
LINE
  5
2A9
330
1F
100
AcDbEntity
  8
0
  6
Continuous
 62
     7
370
    15
100
AcDbLine
 10
1536.5270311672
 20
-335.8637876095
 30
0.0
 11
1536.5270311672
 21
-333.8637875145
 31
0.0
  0
LINE
  5
2AA
330
1F
100
AcDbEntity
  8
0
  6
Continuous
 62
     7
370
    15
100
AcDbLine
 10
1476.5270883877
 20
-335.8637876095
 30
0.0
 11
1491.5271932919
 21
-337.8637877045
 31
0.0
  0
LINE
  5
2AB
330
1F
100
AcDbEntity
  8
0
  6
Continuous
 62
     7
370
    15
100
AcDbLine
 10
1521.5271646817
 20
-337.8637877045
 30
0.0
 11
1536.5270311672
 21
-335.8637876095
 31
0.0
  0
LINE
  5
2AC
330
1F
100
AcDbEntity
  8
0
  6
Continuous
 62
     7
370
    15
100
AcDbLine
 10
-53.4729128044
 20
-333.8637875145
 30
0.0
 11
-53.4729128044
 21
-335.8637876095
 31
0.0
  0
LINE
  5
2AD
330
1F
100
AcDbEntity
  8
0
  6
Continuous
 62
     7
370
    15
100
AcDbLine
 10
6.5271193821
 20
-335.8637876095
 30
0.0
 11
6.5271193821
 21
-333.8637875145
 31
0.0
  0
LINE
  5
2AE
330
1F
100
AcDbEntity
  8
0
  6
Continuous
 62
     7
370
    15
100
AcDbLine
 10
-53.4729128044
 20
-335.8637876095
 30
0.0
 11
-38.4728973072
 21
-337.8637877045
 31
0.0
  0
LINE
  5
2AF
330
1F
100
AcDbEntity
  8
0
  6
Continuous
 62
     7
370
    15
100
AcDbLine
 10
-8.4729259174
 20
-337.8637877045
 30
0.0
 11
6.5271193821
 21
-335.8637876095
 31
0.0
  0
LINE
  5
2B0
330
1F
100
AcDbEntity
  8
0
  6
Continuous
 62
     7
370
    15
100
AcDbLine
 10
966.5270979245
 20
-333.8637875145
 30
0.0
 11
966.5270979245
 21
-335.8637876095
 31
0.0
  0
LINE
  5
2B1
330
1F
100
AcDbEntity
  8
0
  6
Continuous
 62
     7
370
    15
100
AcDbLine
 10
1026.527040704
 20
-335.8637876095
 30
0.0
 11
1026.527040704
 21
-333.8637875145
 31
0.0
  0
LINE
  5
2B2
330
1F
100
AcDbEntity
  8
0
  6
Continuous
 62
     7
370
    15
100
AcDbLine
 10
966.5270979245
 20
-335.8637876095
 30
0.0
 11
981.5270836193
 21
-337.8637877045
 31
0.0
  0
LINE
  5
2B3
330
1F
100
AcDbEntity
  8
0
  6
Continuous
 62
     7
370
    15
100
AcDbLine
 10
1011.5270550091
 20
-337.8637877045
 30
0.0
 11
1026.527040704
 21
-335.8637876095
 31
0.0
  0
LINE
  5
2B4
330
1F
100
AcDbEntity
  8
0
  6
Continuous
 62
     7
370
    15
100
AcDbLine
 10
456.5271074612
 20
-333.8637875145
 30
0.0
 11
456.5271074612
 21
-335.8637876095
 31
0.0
  0
LINE
  5
2B5
330
1F
100
AcDbEntity
  8
0
  6
Continuous
 62
     7
370
    15
100
AcDbLine
 10
516.5270502407
 20
-335.8637876095
 30
0.0
 11
516.5270502407
 21
-333.8637875145
 31
0.0
  0
LINE
  5
2B6
330
1F
100
AcDbEntity
  8
0
  6
Continuous
 62
     7
370
    15
100
AcDbLine
 10
456.5271074612
 20
-335.8637876095
 30
0.0
 11
471.5270931561
 21
-337.8637877045
 31
0.0
  0
LINE
  5
2B7
330
1F
100
AcDbEntity
  8
0
  6
Continuous
 62
     7
370
    15
100
AcDbLine
 10
501.5270645458
 20
-337.8637877045
 30
0.0
 11
516.5270502407
 21
-335.8637876095
 31
0.0
  0
LINE
  5
2B8
330
1F
100
AcDbEntity
  8
0
  6
Continuous
 62
     7
370
    15
100
AcDbLine
 10
1636.5271742184
 20
-380.8637859052
 30
0.0
 11
1636.5271742184
 21
-355.8637873953
 31
0.0
  0
LWPOLYLINE
  5
2B9
330
1F
100
AcDbEntity
  8
0
  6
Continuous
 62
     7
370
    15
100
AcDbPolyline
 90
       13
 70
   128
 43
0.0
 10
479.0090257962
 20
-380.8446826165
 10
479.2463714916
 20
-380.7030135518
 10
480.1030094464
 20
-380.2177721387
 10
481.6061193783
 20
-379.4752062982
 10
483.8701422055
 20
-378.6743135875
 10
485.9497482617
 20
-378.3428037291
 10
488.1045753796
 20
-378.4502187496
 10
489.9871284802
 20
-378.9098636931
 10
491.8113882382
 20
-379.6407805508
 10
493.3477575619
 20
-380.4372923201
 10
494.0466816265
 20
-380.8454127734
 10
494.0770799954
 20
-380.8637859052
 10
494.0770799954
 20
-380.8637859052
  0
LWPOLYLINE
  5
2BA
330
1F
100
AcDbEntity
  8
0
  6
Continuous
 62
     7
370
    15
100
AcDbPolyline
 90
       13
 70
   128
 43
0.0
 10
1499.0090067227
 20
-380.8446826165
 10
1499.2464716275
 20
-380.7030135518
 10
1500.1028711636
 20
-380.2177721387
 10
1501.6061003048
 20
-379.4752062982
 10
1503.870123132
 20
-378.6743135875
 10
1505.9498483975
 20
-378.3428037291
 10
1508.1046755154
 20
-378.4502187496
 10
1509.987228616
 20
-378.9098636931
 10
1511.8113691647
 20
-379.6407805508
 10
1513.3477384884
 20
-380.4372923201
 10
1514.0465433438
 20
-380.8454127734
 10
1514.0770609219
 20
-380.8637859052
 10
1514.0770609219
 20
-380.8637859052
  0
LWPOLYLINE
  5
2BB
330
1F
100
AcDbEntity
  8
0
  6
Continuous
 62
     7
370
    15
100
AcDbPolyline
 90
       13
 70
   128
 43
0.0
 10
-30.9909646671
 20
-380.8446826165
 10
-30.7536189716
 20
-380.7030135518
 10
-29.8970406215
 20
-380.2177721387
 10
-28.3938710849
 20
-379.4752062982
 10
-26.1298482578
 20
-378.6743135875
 10
-24.0501825969
 20
-378.3428037291
 10
-21.895355479
 20
-378.4502187496
 10
-20.0128023784
 20
-378.9098636931
 10
-18.1886618297
 20
-379.6407805508
 10
-16.6521732967
 20
-380.4372923201
 10
-15.9533684414
 20
-380.8454127734
 10
-15.9229104679
 20
-380.8637859052
 10
-15.9229104679
 20
-380.8637859052
  0
SPLINE
  5
2BC
330
1F
100
AcDbEntity
  8
0
  6
Continuous
 62
     7
370
    15
100
AcDbSpline
210
0.0
220
0.0
230
1.0
 70
     8
 71
     3
 72
    11
 73
     7
 74
     0
 42
0.000000001
 43
0.00000001
 40
0.0
 40
0.0
 40
0.0
 40
0.0
 40
0.2307236924287236
 40
0.4822370465912988
 40
0.7600031877340504
 40
1.0
 40
1.0
 40
1.0
 40
1.0
 10
-540.9909434888274
 20
-380.8446826165397
 30
0.0
 10
-540.9510140474152
 20
-380.8194673869248
 30
0.0
 10
-540.8675572697606
 20
-380.7667648762697
 30
0.0
 10
-539.9269107608471
 20
-380.2291479612741
 30
0.0
 10
-538.5733250307159
 20
-379.4922212552205
 30
0.0
 10
-537.2697337285595
 20
-379.0628255568529
 30
0.0
 10
-536.6654847088963
 20
-378.863789302655
 30
0.0
  0
SPLINE
  5
2BD
330
1F
100
AcDbEntity
  8
0
  6
Continuous
 62
     7
370
    15
100
AcDbSpline
210
0.0
220
0.0
230
1.0
 70
     8
 71
     3
 72
    14
 73
    10
 74
     0
 42
0.000000001
 43
0.00000001
 40
0.0
 40
0.0
 40
0.0
 40
0.0
 40
0.0700002869423392
 40
0.2282574341143562
 40
0.378391206145949
 40
0.5515643063310427
 40
0.75385836597535
 40
0.9503468045896504
 40
1.0
 40
1.0
 40
1.0
 40
1.0
 10
-534.9729020885885
 20
-378.4898856406887
 30
0.0
 10
-534.667823791858
 20
-378.4321360072447
 30
0.0
 10
-533.6730223095008
 20
-378.2438255912915
 30
0.0
 10
-531.8924870512511
 20
-378.3928887896313
 30
0.0
 10
-529.8702355078424
 20
-378.903566759925
 30
0.0
 10
-528.0085824433172
 20
-379.6926113407666
 30
0.0
 10
-526.5337284121863
 20
-380.4931423670961
 30
0.0
 10
-525.9604892302441
 20
-380.8412232288713
 30
0.0
 10
-525.9292114146652
 20
-380.8599984523183
 30
0.0
 10
-525.9229018624634
 20
-380.8637859051902
 30
0.0
  0
LWPOLYLINE
  5
2BE
330
1F
100
AcDbEntity
  8
0
  6
Continuous
 62
     7
370
    15
100
AcDbPolyline
 90
       13
 70
   128
 43
0.0
 10
989.0090162594
 20
-380.8446826165
 10
989.2463619549
 20
-380.7030135518
 10
990.1029999096
 20
-380.2177721387
 10
991.6061098416
 20
-379.4752062982
 10
993.8701326687
 20
-378.6743135875
 10
995.9497387249
 20
-378.3428037291
 10
998.1046850521
 20
-378.4502187496
 10
999.9872381527
 20
-378.9098636931
 10
1001.8113787014
 20
-379.6407805508
 10
1003.3477480252
 20
-380.4372923201
 10
1004.0466720898
 20
-380.8454127734
 10
1004.0770704586
 20
-380.8637859052
 10
1004.0770704586
 20
-380.8637859052
  0
LINE
  5
2BF
330
1F
100
AcDbEntity
  8
0
  6
Continuous
 62
     7
370
    15
100
AcDbLine
 10
-663.4728973072
 20
-380.8637859052
 30
0.0
 11
-663.4728973072
 21
-355.8637873953
 31
0.0
  0
LINE
  5
2C0
330
1F
100
AcDbEntity
  8
0
  6
Continuous
 62
     7
370
    15
100
AcDbLine
 10
1499.0771944363
 20
-380.8637859052
 30
0.0
 11
1513.9771635372
 21
-380.8637859052
 31
0.0
  0
LINE
  5
2C1
330
1F
100
AcDbEntity
  8
0
  6
Continuous
 62
     7
370
    15
100
AcDbLine
 10
1512.9769975979
 20
-381.8637879317
 30
0.0
 11
1500.077121957
 21
-381.8637879317
 31
0.0
  0
LINE
  5
2C2
330
1F
100
AcDbEntity
  8
0
  6
Continuous
 62
     7
370
    15
100
AcDbLine
 10
-540.9229019928
 20
-380.8637859052
 30
0.0
 11
-526.0229021583
 21
-380.8637859052
 31
0.0
  0
LINE
  5
2C3
330
1F
100
AcDbEntity
  8
0
  6
Continuous
 62
     7
370
    15
100
AcDbLine
 10
-527.0229018565
 20
-381.8637879317
 30
0.0
 11
-539.9229022946
 21
-381.8637879317
 31
0.0
  0
LINE
  5
2C4
330
1F
100
AcDbEntity
  8
0
  6
Continuous
 62
     7
370
    15
100
AcDbLine
 10
479.0770943005
 20
-380.8637859052
 30
0.0
 11
493.9770634014
 21
-380.8637859052
 31
0.0
  0
LINE
  5
2C5
330
1F
100
AcDbEntity
  8
0
  6
Continuous
 62
     7
370
    15
100
AcDbLine
 10
492.9771358807
 20
-381.8637879317
 30
0.0
 11
480.0771410305
 21
-381.8637879317
 31
0.0
  0
LINE
  5
2C6
330
1F
100
AcDbEntity
  8
0
  6
Continuous
 62
     7
370
    15
100
AcDbLine
 10
-30.9228961628
 20
-380.8637859052
 30
0.0
 11
-16.0229270618
 21
-380.8637859052
 31
0.0
  0
LINE
  5
2C7
330
1F
100
AcDbEntity
  8
0
  6
Continuous
 62
     7
370
    15
100
AcDbLine
 10
-17.0229141872
 20
-381.8637879317
 30
0.0
 11
-29.9229090374
 21
-381.8637879317
 31
0.0
  0
LINE
  5
2C8
330
1F
100
AcDbEntity
  8
0
  6
Continuous
 62
     7
370
    15
100
AcDbLine
 10
989.0770847637
 20
-380.8637859052
 30
0.0
 11
1003.9770538647
 21
-380.8637859052
 31
0.0
  0
LINE
  5
2C9
330
1F
100
AcDbEntity
  8
0
  6
Continuous
 62
     7
370
    15
100
AcDbLine
 10
1002.9771263439
 20
-381.8637879317
 30
0.0
 11
990.0771314938
 21
-381.8637879317
 31
0.0
  0
LINE
  5
2CA
330
1F
100
AcDbEntity
  8
0
  6
Continuous
 62
     7
370
    15
100
AcDbLine
 10
286.5270907719
 20
-391.8637858456
 30
0.0
 11
199.5270783741
 21
-391.8637858456
 31
0.0
  0
LINE
  5
2CB
330
1F
100
AcDbEntity
  8
0
  6
Continuous
 62
     7
370
    15
100
AcDbLine
 10
174.527102216
 20
-391.8637858456
 30
0.0
 11
-551.4729013007
 21
-391.8637858456
 31
0.0
  0
LINE
  5
2CC
330
1F
100
AcDbEntity
  8
0
  6
Continuous
 62
     7
370
    15
100
AcDbLine
 10
-576.4729035359
 20
-391.8637858456
 30
0.0
 11
-579.472902165
 21
-391.8637858456
 31
0.0
  0
LINE
  5
2CD
330
1F
100
AcDbEntity
  8
0
  6
Continuous
 62
     7
370
    15
100
AcDbLine
 10
-619.4729049962
 20
-391.8637858456
 30
0.0
 11
-663.4728973072
 21
-391.8637858456
 31
0.0
  0
LINE
  5
2CE
330
1F
100
AcDbEntity
  8
0
  6
Continuous
 62
     7
370
    15
100
AcDbLine
 10
-579.472902165
 20
-385.8637885874
 30
0.0
 11
-578.9729011517
 21
-385.8637885874
 31
0.0
  0
LINE
  5
2CF
330
1F
100
AcDbEntity
  8
0
  6
Continuous
 62
     7
370
    15
100
AcDbLine
 10
-548.9729018222
 20
-385.8637885874
 30
0.0
 11
-532.9729020518
 21
-385.8637885874
 31
0.0
  0
ARC
  5
2D0
330
1F
100
AcDbEntity
  8
0
  6
Continuous
 62
     7
370
    15
100
AcDbCircle
 10
-532.9729020755
 20
-370.3637875145
 30
0.0
 40
15.5
100
AcDbArc
 50
270.0
 51
317.3576900201
  0
LINE
  5
2D1
330
1F
100
AcDbEntity
  8
0
  6
Continuous
 62
     7
370
    15
100
AcDbLine
 10
-540.9729019079
 20
-354.8637872314
 30
0.0
 11
-556.5924224715
 21
-354.8637872314
 31
0.0
  0
LINE
  5
2D2
330
1F
100
AcDbEntity
  8
0
  6
Continuous
 62
     7
370
    15
100
AcDbLine
 10
-571.353382365
 20
-354.8637872314
 30
0.0
 11
-583.4729028206
 21
-354.8637872314
 31
0.0
  0
ARC
  5
2D3
330
1F
100
AcDbEntity
  8
0
  6
Continuous
 62
     7
370
    15
100
AcDbCircle
 10
156.0270979245
 20
-370.3637875145
 30
0.0
 40
15.50000000000006
100
AcDbArc
 50
90.0
 51
110.6935412312
  0
ARC
  5
2D4
330
1F
100
AcDbEntity
  8
0
  6
Continuous
 62
     7
370
    15
100
AcDbCircle
 10
156.0270979245
 20
-370.3637875145
 30
0.0
 40
15.49999999999996
100
AcDbArc
 50
222.6423099799
 51
270.0
  0
LINE
  5
2D5
330
1F
100
AcDbEntity
  8
0
  6
Continuous
 62
     7
370
    15
100
AcDbLine
 10
156.0270721752
 20
-385.8637885874
 30
0.0
 11
172.0271046002
 21
-385.8637885874
 31
0.0
  0
LINE
  5
2D6
330
1F
100
AcDbEntity
  8
0
  6
Continuous
 62
     7
370
    15
100
AcDbLine
 10
202.0270759899
 20
-385.8637885874
 30
0.0
 11
217.0271212895
 21
-385.8637885874
 31
0.0
  0
ARC
  5
2D7
330
1F
100
AcDbEntity
  8
0
  6
Continuous
 62
     7
370
    15
100
AcDbCircle
 10
217.0270979244
 20
-370.3637875145
 30
0.0
 40
15.5
100
AcDbArc
 50
270.0
 51
317.3576900201
  0
ARC
  5
2D8
330
1F
100
AcDbEntity
  8
0
  6
Continuous
 62
     7
370
    15
100
AcDbCircle
 10
217.0270979244
 20
-370.3637875145
 30
0.0
 40
15.5
100
AcDbArc
 50
69.3064587688
 51
90.0
  0
LINE
  5
2D9
330
1F
100
AcDbEntity
  8
0
  6
Continuous
 62
     7
370
    15
100
AcDbLine
 10
217.0271212895
 20
-354.8637872314
 30
0.0
 11
194.4075758297
 21
-354.8637872314
 31
0.0
  0
LINE
  5
2DA
330
1F
100
AcDbEntity
  8
0
  6
Continuous
 62
     7
370
    15
100
AcDbLine
 10
179.6466047604
 20
-354.8637872314
 30
0.0
 11
156.0270721752
 21
-354.8637872314
 31
0.0
  0
LINE
  5
2DB
330
1F
100
AcDbEntity
  8
0
  6
Continuous
 62
     7
370
    15
100
AcDbLine
 10
286.5270907719
 20
-351.8637867397
 30
0.0
 11
-15.9729187649
 21
-351.8637867397
 31
0.0
  0
LINE
  5
2DC
330
1F
100
AcDbEntity
  8
0
  6
Continuous
 62
     7
370
    15
100
AcDbLine
 10
-30.9729044597
 20
-351.8637867397
 30
0.0
 11
-525.9729022432
 21
-351.8637867397
 31
0.0
  0
LINE
  5
2DD
330
1F
100
AcDbEntity
  8
0
  6
Continuous
 62
     7
370
    15
100
AcDbLine
 10
-540.9729019079
 20
-351.8637867397
 30
0.0
 11
-663.4728973072
 21
-351.8637867397
 31
0.0
  0
LINE
  5
2DE
330
1F
100
AcDbEntity
  8
0
  6
Continuous
 62
     7
370
    15
100
AcDbLine
 10
-663.4728973072
 20
-391.8637858456
 30
0.0
 11
-663.4728973072
 21
-380.8637859052
 31
0.0
  0
LINE
  5
2DF
330
1F
100
AcDbEntity
  8
0
  6
Continuous
 62
     7
370
    15
100
AcDbLine
 10
-663.4728973072
 20
-355.8637873953
 30
0.0
 11
-663.4728973072
 21
-351.8637867397
 31
0.0
  0
LINE
  5
2E0
330
1F
100
AcDbEntity
  8
0
  6
Continuous
 62
     7
370
    15
100
AcDbLine
 10
286.5270907719
 20
-391.8637858456
 30
0.0
 11
286.5270907719
 21
-380.8637859052
 31
0.0
  0
LINE
  5
2E1
330
1F
100
AcDbEntity
  8
0
  6
Continuous
 62
     7
370
    15
100
AcDbLine
 10
286.5270907719
 20
-355.8637873953
 30
0.0
 11
286.5270907719
 21
-351.8637867397
 31
0.0
  0
LINE
  5
2E2
330
1F
100
AcDbEntity
  8
0
  6
Continuous
 62
     7
370
    15
100
AcDbLine
 10
201.4967734654
 20
-357.3637867099
 30
0.0
 11
172.2270781834
 21
-357.3637867099
 31
0.0
  0
LINE
  5
2E3
330
1F
100
AcDbEntity
  8
0
  6
Continuous
 62
     7
370
    15
100
AcDbLine
 10
201.8271024067
 20
-357.3637867099
 30
0.0
 11
201.4967734654
 21
-357.3637867099
 31
0.0
  0
LINE
  5
2E4
330
1F
100
AcDbEntity
  8
0
  6
Continuous
 62
     7
370
    15
100
AcDbLine
 10
184.4012672741
 20
-354.5049411928
 30
0.0
 11
185.0907142002
 21
-354.5049411928
 31
0.0
  0
SPLINE
  5
2E5
330
1F
100
AcDbEntity
  8
0
  6
Continuous
 62
     7
370
    15
100
AcDbSpline
210
0.0
220
0.0
230
1.0
 70
     8
 71
     3
 72
     9
 73
     5
 74
     0
 42
0.000000001
 43
0.00000001
 40
0.0
 40
0.0
 40
0.0
 40
0.0
 40
0.4999897736512713
 40
1.0
 40
1.0
 40
1.0
 40
1.0
 10
185.0907142002374
 20
-354.5049411928136
 30
0.0
 10
185.5610940319139
 20
-354.4934637298998
 30
0.0
 10
186.5018729367333
 20
-354.4705083345722
 30
0.0
 10
187.4426537217407
 20
-354.493463416902
 30
0.0
 10
187.9130537349969
 20
-354.5049411928136
 30
0.0
  0
LINE
  5
2E6
330
1F
100
AcDbEntity
  8
0
  6
Continuous
 62
     7
370
    15
100
AcDbLine
 10
187.913053735
 20
-354.5049411928
 30
0.0
 11
189.8494298298
 21
-354.5049411928
 31
0.0
  0
LINE
  5
2E7
330
1F
100
AcDbEntity
  8
0
  6
Continuous
 62
     7
370
    15
100
AcDbLine
 10
189.8494298298
 20
-354.5049411928
 30
0.0
 11
189.6538073857
 21
-354.5049411928
 31
0.0
  0
LINE
  5
2E8
330
1F
100
AcDbEntity
  8
0
  6
Continuous
 62
     7
370
    15
100
AcDbLine
 10
-549.5032062094
 20
-357.3637867099
 30
0.0
 11
-578.7729014914
 21
-357.3637867099
 31
0.0
  0
LINE
  5
2E9
330
1F
100
AcDbEntity
  8
0
  6
Continuous
 62
     7
370
    15
100
AcDbLine
 10
-549.1729014825
 20
-357.3637867099
 30
0.0
 11
-549.5032062094
 21
-357.3637867099
 31
0.0
  0
LINE
  5
2EA
330
1F
100
AcDbEntity
  8
0
  6
Continuous
 62
     7
370
    15
100
AcDbLine
 10
-566.598742203
 20
-354.5049411928
 30
0.0
 11
-565.9092878263
 21
-354.5049411928
 31
0.0
  0
SPLINE
  5
2EB
330
1F
100
AcDbEntity
  8
0
  6
Continuous
 62
     7
370
    15
100
AcDbSpline
210
0.0
220
0.0
230
1.0
 70
     8
 71
     3
 72
     9
 73
     5
 74
     0
 42
0.000000001
 43
0.00000001
 40
0.0
 40
0.0
 40
0.0
 40
0.0
 40
0.4999998644767683
 40
1.0
 40
1.0
 40
1.0
 40
1.0
 10
-565.9092878263206
 20
-354.5049411928136
 30
0.0
 10
-565.4389003236391
 20
-354.4934635754781
 30
0.0
 10
-564.4981250632824
 20
-354.470508334585
 30
0.0
 10
-563.5573505679068
 20
-354.4934635713301
 30
0.0
 10
-563.0869631927222
 20
-354.5049411928136
 30
0.0
  0
LINE
  5
2EC
330
1F
100
AcDbEntity
  8
0
  6
Continuous
 62
     7
370
    15
100
AcDbLine
 10
-563.0869631927
 20
-354.5049411928
 30
0.0
 11
-561.150575922
 21
-354.5049411928
 31
0.0
  0
LINE
  5
2ED
330
1F
100
AcDbEntity
  8
0
  6
Continuous
 62
     7
370
    15
100
AcDbLine
 10
-561.150575922
 20
-354.5049411928
 30
0.0
 11
-561.3462169926
 21
-354.5049411928
 31
0.0
  0
LINE
  5
2EE
330
1F
100
AcDbEntity
  8
0
  6
Continuous
 62
     7
370
    15
100
AcDbLine
 10
216.0270745594
 20
-359.3637870377
 30
0.0
 11
158.0271060307
 21
-359.3637870377
 31
0.0
  0
LINE
  5
2EF
330
1F
100
AcDbEntity
  8
0
  6
Continuous
 62
     7
370
    15
100
AcDbLine
 10
216.0270745594
 20
-357.8637877231
 30
0.0
 11
158.0271060307
 21
-357.8637877231
 31
0.0
  0
LINE
  5
2F0
330
1F
100
AcDbEntity
  8
0
  6
Continuous
 62
     7
370
    15
100
AcDbLine
 10
-589.3880118888
 20
-378.8637893027
 30
0.0
 11
-534.9729020886
 21
-378.8637893027
 31
0.0
  0
LINE
  5
2F1
330
1F
100
AcDbEntity
  8
0
  6
Continuous
 62
     7
370
    15
100
AcDbLine
 10
-592.9729034465
 20
-378.8637893027
 30
0.0
 11
-589.3880118888
 21
-378.8637893027
 31
0.0
  0
LINE
  5
2F2
330
1F
100
AcDbEntity
  8
0
  6
Continuous
 62
     7
370
    15
100
AcDbLine
 10
-589.3880118888
 20
-377.3637862628
 30
0.0
 11
-534.9729020886
 21
-377.3637862628
 31
0.0
  0
LINE
  5
2F3
330
1F
100
AcDbEntity
  8
0
  6
Continuous
 62
     7
370
    15
100
AcDbLine
 10
-592.9729034465
 20
-377.3637862628
 30
0.0
 11
-589.3880118888
 21
-377.3637862628
 31
0.0
  0
LINE
  5
2F4
330
1F
100
AcDbEntity
  8
0
  6
Continuous
 62
     7
370
    15
100
AcDbLine
 10
161.6119677861
 20
-377.3637862628
 30
0.0
 11
216.0270745594
 21
-377.3637862628
 31
0.0
  0
LINE
  5
2F5
330
1F
100
AcDbEntity
  8
0
  6
Continuous
 62
     7
370
    15
100
AcDbLine
 10
158.0271060307
 20
-377.3637862628
 30
0.0
 11
161.6119677861
 21
-377.3637862628
 31
0.0
  0
LINE
  5
2F6
330
1F
100
AcDbEntity
  8
0
  6
Continuous
 62
     7
370
    15
100
AcDbLine
 10
161.6119677861
 20
-378.8637893027
 30
0.0
 11
216.0270745594
 21
-378.8637893027
 31
0.0
  0
LINE
  5
2F7
330
1F
100
AcDbEntity
  8
0
  6
Continuous
 62
     7
370
    15
100
AcDbLine
 10
158.0271060307
 20
-378.8637893027
 30
0.0
 11
161.6119677861
 21
-378.8637893027
 31
0.0
  0
LINE
  5
2F8
330
1F
100
AcDbEntity
  8
0
  6
Continuous
 62
     7
370
    15
100
AcDbLine
 10
-534.9729020886
 20
-357.8637877231
 30
0.0
 11
-592.9729034465
 21
-357.8637877231
 31
0.0
  0
LINE
  5
2F9
330
1F
100
AcDbEntity
  8
0
  6
Continuous
 62
     7
370
    15
100
AcDbLine
 10
-534.9729020886
 20
-359.3637870377
 30
0.0
 11
-592.9729034465
 21
-359.3637870377
 31
0.0
  0
LINE
  5
2FA
330
1F
100
AcDbEntity
  8
0
  6
Continuous
 62
     7
370
    15
100
AcDbLine
 10
161.060267194
 20
-359.3637870377
 30
0.0
 11
216.0270745594
 21
-359.3637870377
 31
0.0
  0
LINE
  5
2FB
330
1F
100
AcDbEntity
  8
0
  6
Continuous
 62
     7
370
    15
100
AcDbLine
 10
158.0271060307
 20
-359.3637870377
 30
0.0
 11
161.060267194
 21
-359.3637870377
 31
0.0
  0
LINE
  5
2FC
330
1F
100
AcDbEntity
  8
0
  6
Continuous
 62
     7
370
    15
100
AcDbLine
 10
158.0271060307
 20
-360.3842166936
 30
0.0
 11
216.0270745594
 21
-360.3842166936
 31
0.0
  0
LINE
  5
2FD
330
1F
100
AcDbEntity
  8
0
  6
Continuous
 62
     7
370
    15
100
AcDbLine
 10
161.060267194
 20
-376.3954603797
 30
0.0
 11
158.0271060307
 21
-376.3954603797
 31
0.0
  0
LINE
  5
2FE
330
1F
100
AcDbEntity
  8
0
  6
Continuous
 62
     7
370
    15
100
AcDbLine
 10
216.0270745594
 20
-376.3954603797
 30
0.0
 11
161.060267194
 21
-376.3954603797
 31
0.0
  0
LINE
  5
2FF
330
1F
100
AcDbEntity
  8
0
  6
Continuous
 62
     7
370
    15
100
AcDbLine
 10
161.060267194
 20
-377.3637862628
 30
0.0
 11
216.0270745594
 21
-377.3637862628
 31
0.0
  0
LINE
  5
300
330
1F
100
AcDbEntity
  8
0
  6
Continuous
 62
     7
370
    15
100
AcDbLine
 10
158.0271060307
 20
-377.3637862628
 30
0.0
 11
161.060267194
 21
-377.3637862628
 31
0.0
  0
LINE
  5
301
330
1F
100
AcDbEntity
  8
0
  6
Continuous
 62
     7
370
    15
100
AcDbLine
 10
-589.9397460084
 20
-359.3637870377
 30
0.0
 11
-534.9729020886
 21
-359.3637870377
 31
0.0
  0
LINE
  5
302
330
1F
100
AcDbEntity
  8
0
  6
Continuous
 62
     7
370
    15
100
AcDbLine
 10
-592.9729034465
 20
-359.3637870377
 30
0.0
 11
-589.9397460084
 21
-359.3637870377
 31
0.0
  0
LINE
  5
303
330
1F
100
AcDbEntity
  8
0
  6
Continuous
 62
     7
370
    15
100
AcDbLine
 10
-592.9729034465
 20
-360.3842166936
 30
0.0
 11
-534.9729020886
 21
-360.3842166936
 31
0.0
  0
LINE
  5
304
330
1F
100
AcDbEntity
  8
0
  6
Continuous
 62
     7
370
    15
100
AcDbLine
 10
-589.9397460084
 20
-376.3954603797
 30
0.0
 11
-592.9729034465
 21
-376.3954603797
 31
0.0
  0
LINE
  5
305
330
1F
100
AcDbEntity
  8
0
  6
Continuous
 62
     7
370
    15
100
AcDbLine
 10
-534.9729020886
 20
-376.3954603797
 30
0.0
 11
-589.9397460084
 21
-376.3954603797
 31
0.0
  0
LINE
  5
306
330
1F
100
AcDbEntity
  8
0
  6
Continuous
 62
     7
370
    15
100
AcDbLine
 10
-589.9397460084
 20
-377.3637862628
 30
0.0
 11
-534.9729020886
 21
-377.3637862628
 31
0.0
  0
LINE
  5
307
330
1F
100
AcDbEntity
  8
0
  6
Continuous
 62
     7
370
    15
100
AcDbLine
 10
-592.9729034465
 20
-377.3637862628
 30
0.0
 11
-589.9397460084
 21
-377.3637862628
 31
0.0
  0
LINE
  5
308
330
1F
100
AcDbEntity
  8
0
  6
Continuous
 62
     7
370
    15
100
AcDbLine
 10
-579.472902165
 20
-385.3637875741
 30
0.0
 11
-578.9729011517
 21
-385.3637875741
 31
0.0
  0
LINE
  5
309
330
1F
100
AcDbEntity
  8
0
  6
Continuous
 62
     7
370
    15
100
AcDbLine
 10
-548.9729018222
 20
-385.3637875741
 30
0.0
 11
-533.9729020993
 21
-385.3637875741
 31
0.0
  0
ARC
  5
30A
330
1F
100
AcDbEntity
  8
0
  6
Continuous
 62
     7
370
    15
100
AcDbCircle
 10
-533.9729020755
 20
-370.3637875145
 30
0.0
 40
15.0
100
AcDbArc
 50
270.0
 51
315.5729959992
  0
LINE
  5
30B
330
1F
100
AcDbEntity
  8
0
  6
Continuous
 62
     7
370
    15
100
AcDbLine
 10
-540.9729019079
 20
-355.3637882447
 30
0.0
 11
-548.9729018222
 21
-355.3637882447
 31
0.0
  0
LINE
  5
30C
330
1F
100
AcDbEntity
  8
0
  6
Continuous
 62
     7
370
    15
100
AcDbLine
 10
-578.9729011517
 20
-355.3637882447
 30
0.0
 11
-583.4729028206
 21
-355.3637882447
 31
0.0
  0
LINE
  5
30D
330
1F
100
AcDbEntity
  8
0
  6
Continuous
 62
     7
370
    15
100
AcDbLine
 10
157.0271189053
 20
-385.3637875741
 30
0.0
 11
172.0271046002
 21
-385.3637875741
 31
0.0
  0
LINE
  5
30E
330
1F
100
AcDbEntity
  8
0
  6
Continuous
 62
     7
370
    15
100
AcDbLine
 10
202.0270759899
 20
-385.3637875741
 30
0.0
 11
217.0271212895
 21
-385.3637875741
 31
0.0
  0
LINE
  5
30F
330
1F
100
AcDbEntity
  8
0
  6
Continuous
 62
     7
370
    15
100
AcDbLine
 10
217.0271212895
 20
-355.3637882447
 30
0.0
 11
202.0270759899
 21
-355.3637882447
 31
0.0
  0
LINE
  5
310
330
1F
100
AcDbEntity
  8
0
  6
Continuous
 62
     7
370
    15
100
AcDbLine
 10
172.0271046002
 20
-355.3637882447
 30
0.0
 11
157.0271189053
 21
-355.3637882447
 31
0.0
  0
ARC
  5
311
330
1F
100
AcDbEntity
  8
0
  6
Continuous
 62
     7
370
    15
100
AcDbCircle
 10
217.0270979244
 20
-370.3637875145
 30
0.0
 40
15.0
100
AcDbArc
 50
270.0
 51
315.5729959992
  0
LWPOLYLINE
  5
312
330
1F
100
AcDbEntity
  8
0
  6
Continuous
 62
     7
370
    15
100
AcDbPolyline
 90
        3
 70
   128
 43
0.0
 10
220.8676869709
 20
-355.8637873953
 10
219.373636945
 20
-355.5484620606
 10
217.0271212895
 20
-355.3637882447
  0
LWPOLYLINE
  5
313
330
1F
100
AcDbEntity
  8
0
  6
Continuous
 62
     7
370
    15
100
AcDbPolyline
 90
        3
 70
   128
 43
0.0
 10
157.0271189053
 20
-355.3637882447
 10
154.6806032498
 20
-355.5484620606
 10
153.1865532238
 20
-355.8637873953
  0
ARC
  5
314
330
1F
100
AcDbEntity
  8
0
  6
Continuous
 62
     7
370
    15
100
AcDbCircle
 10
157.0270979244
 20
-370.3637875145
 30
0.0
 40
14.99999999999998
100
AcDbArc
 50
224.4270040008
 51
270.0
  0
LINE
  5
315
330
1F
100
AcDbEntity
  8
0
  6
Continuous
 62
     7
370
    15
100
AcDbLine
 10
202.0270759899
 20
-379.6637879437
 30
0.0
 11
172.0271046002
 21
-379.6637879437
 31
0.0
  0
LINE
  5
316
330
1F
100
AcDbEntity
  8
0
  6
Continuous
 62
     7
370
    15
100
AcDbLine
 10
172.0271046002
 20
-385.0637862211
 30
0.0
 11
202.0270759899
 21
-385.0637862211
 31
0.0
  0
LINE
  5
317
330
1F
100
AcDbEntity
  8
0
  6
Continuous
 62
     7
370
    15
100
AcDbLine
 10
172.3270947773
 20
-379.3637865906
 30
0.0
 11
201.7270858128
 21
-379.3637865906
 31
0.0
  0
LINE
  5
318
330
1F
100
AcDbEntity
  8
0
  6
Continuous
 62
     7
370
    15
100
AcDbLine
 10
-548.9729018222
 20
-379.6637879437
 30
0.0
 11
-578.9729011517
 21
-379.6637879437
 31
0.0
  0
LINE
  5
319
330
1F
100
AcDbEntity
  8
0
  6
Continuous
 62
     7
370
    15
100
AcDbLine
 10
-578.9729011517
 20
-385.0637862211
 30
0.0
 11
-548.9729018222
 21
-385.0637862211
 31
0.0
  0
LINE
  5
31A
330
1F
100
AcDbEntity
  8
0
  6
Continuous
 62
     7
370
    15
100
AcDbLine
 10
-578.6729035239
 20
-379.3637865906
 30
0.0
 11
-549.2729013126
 21
-379.3637865906
 31
0.0
  0
LINE
  5
31B
330
1F
100
AcDbEntity
  8
0
  6
Continuous
 62
     7
370
    15
100
AcDbLine
 10
202.0270759899
 20
-355.3637882447
 30
0.0
 11
202.0270759899
 21
-355.8637873953
 31
0.0
  0
LINE
  5
31C
330
1F
100
AcDbEntity
  8
0
  6
Continuous
 62
     7
370
    15
100
AcDbLine
 10
202.0270759899
 20
-380.8637859052
 30
0.0
 11
202.0270759899
 21
-385.3637875741
 31
0.0
  0
LINE
  5
31D
330
1F
100
AcDbEntity
  8
0
  6
Continuous
 62
     7
370
    15
100
AcDbLine
 10
198.6833746273
 20
-355.3637882447
 30
0.0
 11
202.0270759899
 21
-355.3637882447
 31
0.0
  0
LINE
  5
31E
330
1F
100
AcDbEntity
  8
0
  6
Continuous
 62
     7
370
    15
100
AcDbLine
 10
172.0271046002
 20
-355.3637882447
 30
0.0
 11
175.3708059628
 21
-355.3637882447
 31
0.0
  0
LINE
  5
31F
330
1F
100
AcDbEntity
  8
0
  6
Continuous
 62
     7
370
    15
100
AcDbLine
 10
172.0271046002
 20
-385.3637875741
 30
0.0
 11
172.0271046002
 21
-380.8637859052
 31
0.0
  0
LINE
  5
320
330
1F
100
AcDbEntity
  8
0
  6
Continuous
 62
     7
370
    15
100
AcDbLine
 10
172.0271046002
 20
-355.8637873953
 30
0.0
 11
172.0271046002
 21
-355.3637882447
 31
0.0
  0
LINE
  5
321
330
1F
100
AcDbEntity
  8
0
  6
Continuous
 62
     7
370
    15
100
AcDbLine
 10
-548.9729018222
 20
-355.3637882447
 30
0.0
 11
-548.9729018222
 21
-355.8637873953
 31
0.0
  0
LINE
  5
322
330
1F
100
AcDbEntity
  8
0
  6
Continuous
 62
     7
370
    15
100
AcDbLine
 10
-548.9729018222
 20
-380.8637859052
 30
0.0
 11
-548.9729018222
 21
-385.3637875741
 31
0.0
  0
LINE
  5
323
330
1F
100
AcDbEntity
  8
0
  6
Continuous
 62
     7
370
    15
100
AcDbLine
 10
-578.9729011517
 20
-385.3637875741
 30
0.0
 11
-578.9729011517
 21
-380.8637859052
 31
0.0
  0
LINE
  5
324
330
1F
100
AcDbEntity
  8
0
  6
Continuous
 62
     7
370
    15
100
AcDbLine
 10
-578.9729011517
 20
-355.8637873953
 30
0.0
 11
-578.9729011517
 21
-355.3637882447
 31
0.0
  0
LINE
  5
325
330
1F
100
AcDbEntity
  8
0
  6
Continuous
 62
     7
370
    15
100
AcDbLine
 10
-552.3166218113
 20
-355.3637882447
 30
0.0
 11
-548.9729018222
 21
-355.3637882447
 31
0.0
  0
LINE
  5
326
330
1F
100
AcDbEntity
  8
0
  6
Continuous
 62
     7
370
    15
100
AcDbLine
 10
-578.9729011517
 20
-355.3637882447
 30
0.0
 11
-575.6291811626
 21
-355.3637882447
 31
0.0
  0
LINE
  5
327
330
1F
100
AcDbEntity
  8
0
  6
Continuous
 62
     7
370
    15
100
AcDbLine
 10
-578.9729011517
 20
-385.3637875741
 30
0.0
 11
-578.9729011517
 21
-391.3637885576
 31
0.0
  0
LINE
  5
328
330
1F
100
AcDbEntity
  8
0
  6
Continuous
 62
     7
370
    15
100
AcDbLine
 10
-578.9729011517
 20
-385.3637875741
 30
0.0
 11
-548.9729018222
 21
-385.3637875741
 31
0.0
  0
LINE
  5
329
330
1F
100
AcDbEntity
  8
0
  6
Continuous
 62
     7
370
    15
100
AcDbLine
 10
-548.9729018222
 20
-385.3637875741
 30
0.0
 11
-548.9729018222
 21
-391.3637885576
 31
0.0
  0
LINE
  5
32A
330
1F
100
AcDbEntity
  8
0
  6
Continuous
 62
     7
370
    15
100
AcDbLine
 10
-578.9729011517
 20
-391.3637885576
 30
0.0
 11
-548.9729018222
 21
-391.3637885576
 31
0.0
  0
LINE
  5
32B
330
1F
100
AcDbEntity
  8
0
  6
Continuous
 62
     7
370
    15
100
AcDbLine
 10
172.0271046002
 20
-385.3637875741
 30
0.0
 11
172.0271046002
 21
-391.3637885576
 31
0.0
  0
LINE
  5
32C
330
1F
100
AcDbEntity
  8
0
  6
Continuous
 62
     7
370
    15
100
AcDbLine
 10
172.0271046002
 20
-385.3637875741
 30
0.0
 11
202.0270759899
 21
-385.3637875741
 31
0.0
  0
LINE
  5
32D
330
1F
100
AcDbEntity
  8
0
  6
Continuous
 62
     7
370
    15
100
AcDbLine
 10
202.0270759899
 20
-385.3637875741
 30
0.0
 11
202.0270759899
 21
-391.3637885576
 31
0.0
  0
LINE
  5
32E
330
1F
100
AcDbEntity
  8
0
  6
Continuous
 62
     7
370
    15
100
AcDbLine
 10
172.0271046002
 20
-391.3637885576
 30
0.0
 11
202.0270759899
 21
-391.3637885576
 31
0.0
  0
LINE
  5
32F
330
1F
100
AcDbEntity
  8
0
  6
Continuous
 62
     7
370
    15
100
AcDbLine
 10
286.5270907719
 20
-385.8637885874
 30
0.0
 11
301.5270764668
 21
-385.8637885874
 31
0.0
  0
LINE
  5
330
330
1F
100
AcDbEntity
  8
0
  6
Continuous
 62
     7
370
    15
100
AcDbLine
 10
301.5270764668
 20
-385.8637885874
 30
0.0
 11
301.5270764668
 21
-380.8637859052
 31
0.0
  0
SPLINE
  5
331
330
1F
100
AcDbEntity
  8
0
  6
Continuous
 62
     7
370
    15
100
AcDbSpline
210
0.0
220
0.0
230
1.0
 70
     8
 71
     3
 72
     9
 73
     5
 74
     0
 42
0.000000001
 43
0.00000001
 40
0.0
 40
0.0
 40
0.0
 40
0.0
 40
0.185364365734683
 40
0.9999999999999999
 40
0.9999999999999999
 40
0.9999999999999999
 40
0.9999999999999999
 10
1557.792061074475
 20
-395.8273345356662
 30
0.0
 10
1557.80746973757
 20
-395.8296395649338
 30
0.0
 10
1557.890596087312
 20
-395.8420746910619
 30
0.0
 10
1557.974514494677
 20
-395.8230405264727
 30
0.0
 10
1558.042877419689
 20
-395.8075346177299
 30
0.0
  0
LINE
  5
332
330
1F
100
AcDbEntity
  8
0
  6
Continuous
 62
     7
370
    15
100
AcDbLine
 10
1563.4185011227
 20
-395.8075346177
 30
0.0
 11
1563.2620985348
 21
-395.8273308104
 31
0.0
  0
SPLINE
  5
333
330
1F
100
AcDbEntity
  8
0
  6
Continuous
 62
     7
370
    15
100
AcDbSpline
210
0.0
220
0.0
230
1.0
 70
     8
 71
     3
 72
     9
 73
     5
 74
     0
 42
0.000000001
 43
0.00000001
 40
0.0
 40
0.0
 40
0.0
 40
0.0
 40
0.4999987052023287
 40
1.0
 40
1.0
 40
1.0
 40
1.0
 10
1560.934417947033
 20
-395.8075346177299
 30
0.0
 10
1561.348730368414
 20
-395.8203514568749
 30
0.0
 10
1562.177357356984
 20
-395.8459852015457
 30
0.0
 10
1563.004785819888
 20
-395.8203515011288
 30
0.0
 10
1563.418501122692
 20
-395.8075346177299
 30
0.0
  0
SPLINE
  5
334
330
1F
100
AcDbEntity
  8
0
  6
Continuous
 62
     7
370
    15
100
AcDbSpline
210
0.0
220
0.0
230
1.0
 70
     8
 71
     3
 72
     9
 73
     5
 74
     0
 42
0.000000001
 43
0.00000001
 40
0.0
 40
0.0
 40
0.0
 40
0.0
 40
0.5000413033677874
 40
0.9999999999999999
 40
0.9999999999999999
 40
0.9999999999999999
 40
0.9999999999999999
 10
1558.042877419689
 20
-395.8075346177299
 30
0.0
 10
1558.524661716709
 20
-395.8203521848995
 30
0.0
 10
1559.488150720066
 20
-395.8459852017787
 30
0.0
 10
1560.452355421312
 20
-395.8203507732207
 30
0.0
 10
1560.934417947033
 20
-395.8075346177299
 30
0.0
  0
SPLINE
  5
335
330
1F
100
AcDbEntity
  8
0
  6
Continuous
 62
     7
370
    15
100
AcDbSpline
210
0.0
220
0.0
230
1.0
 70
     8
 71
     3
 72
     9
 73
     5
 74
     0
 42
0.000000001
 43
0.00000001
 40
0.0
 40
0.0
 40
0.0
 40
0.0
 40
0.1853562745398416
 40
1.0
 40
1.0
 40
1.0
 40
1.0
 10
-602.2078459422797
 20
-395.8273345356662
 30
0.0
 10
-602.1924839630077
 20
-395.8296395395461
 30
0.0
 10
-602.1096058445834
 20
-395.8420750715269
 30
0.0
 10
-602.0255458208579
 20
-395.8230407821441
 30
0.0
 10
-601.9570668499679
 20
-395.8075346177299
 30
0.0
  0
LINE
  5
336
330
1F
100
AcDbEntity
  8
0
  6
Continuous
 62
     7
370
    15
100
AcDbLine
 10
-596.5813835423
 20
-395.8075346177
 30
0.0
 11
-596.7379202407
 21
-395.8273308104
 31
0.0
  0
SPLINE
  5
337
330
1F
100
AcDbEntity
  8
0
  6
Continuous
 62
     7
370
    15
100
AcDbSpline
210
0.0
220
0.0
230
1.0
 70
     8
 71
     3
 72
     9
 73
     5
 74
     0
 42
0.000000001
 43
0.00000001
 40
0.0
 40
0.0
 40
0.0
 40
0.0
 40
0.499999654431701
 40
0.9999999999999999
 40
0.9999999999999999
 40
0.9999999999999999
 40
0.9999999999999999
 10
-599.0655486743659
 20
-395.8075346177299
 30
0.0
 10
-598.6512211235529
 20
-395.8203514730964
 30
0.0
 10
-597.8225654492124
 20
-395.8459852015455
 30
0.0
 10
-596.9951110352456
 20
-395.8203514849072
 30
0.0
 10
-596.5813835423202
 20
-395.8075346177299
 30
0.0
  0
SPLINE
  5
338
330
1F
100
AcDbEntity
  8
0
  6
Continuous
 62
     7
370
    15
100
AcDbSpline
210
0.0
220
0.0
230
1.0
 70
     8
 71
     3
 72
     9
 73
     5
 74
     0
 42
0.000000001
 43
0.00000001
 40
0.0
 40
0.0
 40
0.0
 40
0.0
 40
0.5000006406973072
 40
1.0
 40
1.0
 40
1.0
 40
1.0
 10
-601.9570668499679
 20
-395.8075346177299
 30
0.0
 10
-601.4753355901204
 20
-395.8203514899508
 30
0.0
 10
-600.5118743049998
 20
-395.8459852015455
 30
0.0
 10
-599.5476568060627
 20
-395.8203514680528
 30
0.0
 10
-599.0655486743659
 20
-395.8075346177299
 30
0.0
  0
LINE
  5
339
330
1F
100
AcDbEntity
  8
0
  6
Continuous
 62
     7
370
    15
100
AcDbLine
 10
1580.5271799404
 20
-384.9637882536
 30
0.0
 11
1540.5269796688
 21
-384.9637882536
 31
0.0
  0
LINE
  5
33A
330
1F
100
AcDbEntity
  8
0
  6
Continuous
 62
     7
370
    15
100
AcDbLine
 10
1580.5271799404
 20
-392.9637858396
 30
0.0
 11
1540.5269796688
 21
-392.9637858396
 31
0.0
  0
LINE
  5
33B
330
1F
100
AcDbEntity
  8
0
  6
Continuous
 62
     7
370
    15
100
AcDbLine
 10
-579.472902165
 20
-384.9637882536
 30
0.0
 11
-619.4729049962
 21
-384.9637882536
 31
0.0
  0
LINE
  5
33C
330
1F
100
AcDbEntity
  8
0
  6
Continuous
 62
     7
370
    15
100
AcDbLine
 10
-579.472902165
 20
-392.9637858396
 30
0.0
 11
-619.4729049962
 21
-392.9637858396
 31
0.0
  0
LINE
  5
33D
330
1F
100
AcDbEntity
  8
0
  6
Continuous
 62
     7
370
    15
100
AcDbLine
 10
-583.4729028206
 20
-354.1637884205
 30
0.0
 11
-615.4729043405
 21
-354.1637884205
 31
0.0
  0
LINE
  5
33E
330
1F
100
AcDbEntity
  8
0
  6
Continuous
 62
     7
370
    15
100
AcDbLine
 10
-613.672903673
 20
-352.3637877529
 30
0.0
 11
-585.2729034882
 21
-352.3637877529
 31
0.0
  0
SPLINE
  5
33F
330
1F
100
AcDbEntity
  8
0
  6
Continuous
 62
     7
370
    15
100
AcDbSpline
210
0.0
220
0.0
230
1.0
 70
     8
 71
     3
 72
    10
 73
     6
 74
     0
 42
0.000000001
 43
0.00000001
 40
0.0
 40
0.0
 40
0.0
 40
0.0
 40
0.2388890012728406
 40
0.6901639007513944
 40
1.0
 40
1.0
 40
1.0
 40
1.0
 10
-583.5738060336322
 20
-380.8354066436966
 30
0.0
 10
-583.5547928069942
 20
-380.8591949515488
 30
0.0
 10
-583.4998625147143
 20
-380.9279207248248
 30
0.0
 10
-584.0782871020605
 20
-380.2049795546041
 30
0.0
 10
-584.7742245602772
 20
-379.2518095482858
 30
0.0
 10
-585.0575295548648
 20
-378.863789302655
 30
0.0
  0
SPLINE
  5
340
330
1F
100
AcDbEntity
  8
0
  6
Continuous
 62
     7
370
    15
100
AcDbSpline
210
0.0
220
0.0
230
1.0
 70
     8
 71
     3
 72
    10
 73
     6
 74
     0
 42
0.000000001
 43
0.00000001
 40
0.0
 40
0.0
 40
0.0
 40
0.0
 40
0.331056176079998
 40
0.7957734836748974
 40
1.0
 40
1.0
 40
1.0
 40
1.0
 10
-585.0675841133803
 20
-357.8637877231319
 30
0.0
 10
-584.7722651396268
 20
-357.4653350194739
 30
0.0
 10
-584.0623946538326
 20
-356.5075577025723
 30
0.0
 10
-583.5389429426879
 20
-355.8484133377888
 30
0.0
 10
-583.488348998116
 20
-355.7835807555054
 30
0.0
 10
-583.472902820608
 20
-355.7637875651796
 30
0.0
  0
SPLINE
  5
341
330
1F
100
AcDbEntity
  8
0
  6
Continuous
 62
     7
370
    15
100
AcDbSpline
210
0.0
220
0.0
230
1.0
 70
     8
 71
     3
 72
    22
 73
    18
 74
     0
 42
0.000000001
 43
0.00000001
 40
0.0
 40
0.0
 40
0.0
 40
0.0
 40
0.087077751055807
 40
0.1738038526535121
 40
0.2313481668687244
 40
0.2905520995397038
 40
0.3488893247575876
 40
0.408977811036164
 40
0.4779436696593346
 40
0.547313749125721
 40
0.6291799275051507
 40
0.6881376607312352
 40
0.7487576321789184
 40
0.8086819286370659
 40
0.8706631103967133
 40
0.9564114178102737
 40
1.0
 40
1.0
 40
1.0
 40
1.0
 10
-615.4729043405265
 20
-355.7637875651796
 30
0.0
 10
-615.3902789695227
 20
-355.8679254377278
 30
0.0
 10
-615.2253618967545
 20
-356.0757806388162
 30
0.0
 10
-614.1786871800861
 20
-357.43715905512
 30
0.0
 10
-613.0520977039653
 20
-359.0080179699988
 30
0.0
 10
-611.9810407693005
 20
-360.6282906810775
 30
0.0
 10
-610.9005718716271
 20
-362.5067342413303
 30
0.0
 10
-609.8956584624964
 20
-364.7408023419546
 30
0.0
 10
-609.2324188170708
 20
-367.4211117850226
 30
0.0
 10
-609.4146369986835
 20
-370.5492695211837
 30
0.0
 10
-610.4016395279625
 20
-373.2368447166444
 30
0.0
 10
-611.5922059138026
 20
-375.4623076574861
 30
0.0
 10
-612.6989659369324
 20
-377.205270522508
 30
0.0
 10
-613.763743424788
 20
-378.7209064146356
 30
0.0
 10
-614.7581469563426
 20
-380.0524522984098
 30
0.0
 10
-615.4467394602278
 20
-380.9307395846098
 30
0.0
 10
-615.3908400985629
 20
-380.8594368093355
 30
0.0
 10
-615.3720011275024
 20
-380.8354066436966
 30
0.0
  0
LINE
  5
342
330
1F
100
AcDbEntity
  8
0
  6
Continuous
 62
     7
370
    15
100
AcDbLine
 10
1576.5269930203
 20
-354.1637884205
 30
0.0
 11
1544.527166589
 21
-354.1637884205
 31
0.0
  0
LINE
  5
343
330
1F
100
AcDbEntity
  8
0
  6
Continuous
 62
     7
370
    15
100
AcDbLine
 10
1546.3269884426
 20
-352.3637877529
 30
0.0
 11
1574.7271711666
 21
-352.3637877529
 31
0.0
  0
SPLINE
  5
344
330
1F
100
AcDbEntity
  8
0
  6
Continuous
 62
     7
370
    15
100
AcDbSpline
210
0.0
220
0.0
230
1.0
 70
     8
 71
     3
 72
    22
 73
    18
 74
     0
 42
0.000000001
 43
0.00000001
 40
0.0
 40
0.0
 40
0.0
 40
0.0
 40
0.0424483501419409
 40
0.1226355332563582
 40
0.2089115507174409
 40
0.312006612516915
 40
0.3621947553554031
 40
0.4135779969798034
 40
0.4821779394086311
 40
0.5511346538962465
 40
0.6347837248735879
 40
0.6944717792093273
 40
0.7558515089930627
 40
0.8161938061481615
 40
0.8787131238590694
 40
0.9629715535101963
 40
1.0
 40
1.0
 40
1.0
 40
1.0
 10
1576.426141961315
 20
-380.8354066436966
 30
0.0
 10
1576.446108709126
 20
-380.8608745565027
 30
0.0
 10
1576.503793701757
 20
-380.9344527063589
 30
0.0
 10
1575.787652569847
 20
-380.0211108716064
 30
0.0
 10
1574.455110347986
 20
-378.2379180377113
 30
0.0
 10
1572.943018249786
 20
-375.9971233668049
 30
0.0
 10
1571.730658846019
 20
-373.7546689033013
 30
0.0
 10
1570.859393012534
 20
-371.6896749267644
 30
0.0
 10
1570.270577474088
 20
-369.1181639379353
 30
0.0
 10
1570.513326943923
 20
-365.984130952071
 30
0.0
 10
1571.545131521156
 20
-363.2951580851024
 30
0.0
 10
1572.767059316701
 20
-361.0623643243882
 30
0.0
 10
1573.884642124753
 20
-359.3280280561967
 30
0.0
 10
1574.940214803201
 20
-357.8389318887885
 30
0.0
 10
1575.916496300164
 20
-356.5410473228896
 30
0.0
 10
1576.46264148349
 20
-355.8457732208612
 30
0.0
 10
1576.511941808575
 20
-355.7829632293788
 30
0.0
 10
1576.526993020275
 20
-355.7637875651796
 30
0.0
  0
SPLINE
  5
345
330
1F
100
AcDbEntity
  8
0
  6
Continuous
 62
     7
370
    15
100
AcDbSpline
210
0.0
220
0.0
230
1.0
 70
     8
 71
     3
 72
    22
 73
    18
 74
     0
 42
0.000000001
 43
0.00000001
 40
0.0
 40
0.0
 40
0.0
 40
0.0
 40
0.0870778207992378
 40
0.1738029237277251
 40
0.2313480923230997
 40
0.2905527272949538
 40
0.348888885419948
 40
0.4089781095678023
 40
0.4779433189528067
 40
0.5473133694072532
 40
0.6291786327579911
 40
0.6881365214581663
 40
0.7487573574675304
 40
0.8086815139879375
 40
0.8706624563067824
 40
0.956411415608217
 40
1.0
 40
1.0
 40
1.0
 40
1.0
 10
1544.527166589001
 20
-355.7637875651796
 30
0.0
 10
1544.609819468682
 20
-355.8679222659123
 30
0.0
 10
1544.774790433862
 20
-356.0757698588212
 30
0.0
 10
1545.821212882386
 20
-357.4371821118714
 30
0.0
 10
1546.947946772158
 20
-359.0080194051161
 30
0.0
 10
1548.019107889665
 20
-360.6282525291245
 30
0.0
 10
1549.099373316928
 20
-362.5067800041753
 30
0.0
 10
1550.10450091879
 20
-364.7407605314196
 30
0.0
 10
1550.767482025501
 20
-367.421136632196
 30
0.0
 10
1550.585348707472
 20
-370.5492423359391
 30
0.0
 10
1549.598491765591
 20
-373.2368664154901
 30
0.0
 10
1548.407903571255
 20
-375.4623199769931
 30
0.0
 10
1547.301038081881
 20
-377.2052529769969
 30
0.0
 10
1546.236282433282
 20
-378.7209071633444
 30
0.0
 10
1545.241967169265
 20
-380.0524604423566
 30
0.0
 10
1544.55312950404
 20
-380.9307380594906
 30
0.0
 10
1544.609140985323
 20
-380.859436334921
 30
0.0
 10
1544.628017647961
 20
-380.8354066436966
 30
0.0
  0
SPLINE
  5
346
330
1F
100
AcDbEntity
  8
0
  6
Continuous
 62
     7
370
    15
100
AcDbSpline
210
0.0
220
0.0
230
1.0
 70
     8
 71
     3
 72
    13
 73
     9
 74
     0
 42
0.000000001
 43
0.00000001
 40
0.0
 40
0.0
 40
0.0
 40
0.0
 40
0.1503027698471013
 40
0.31190805097316
 40
0.4904255492302756
 40
0.6920130005257253
 40
0.8499268508003817
 40
0.9999999999999999
 40
0.9999999999999999
 40
0.9999999999999999
 40
0.9999999999999999
 10
-526.0007627580077
 20
-355.8803239589412
 30
0.0
 10
-526.0440706882092
 20
-355.9067906547651
 30
0.0
 10
-526.1339432309082
 20
-355.9617142966812
 30
0.0
 10
-527.0721511409538
 20
-356.5043043644685
 30
0.0
 10
-528.6013359227661
 20
-357.2821980063204
 30
0.0
 10
-530.6343301966039
 20
-358.0405938682953
 30
0.0
 10
-532.9077352257981
 20
-358.4436527146328
 30
0.0
 10
-534.296296416563
 20
-358.3072151568996
 30
0.0
 10
-534.9729020885885
 20
-358.2407330846269
 30
0.0
  0
SPLINE
  5
347
330
1F
100
AcDbEntity
  8
0
  6
Continuous
 62
     7
370
    15
100
AcDbSpline
210
0.0
220
0.0
230
1.0
 70
     8
 71
     3
 72
    12
 73
     8
 74
     0
 42
0.000000001
 43
0.00000001
 40
0.0
 40
0.0
 40
0.0
 40
0.0
 40
0.0455999210837049
 40
0.3148709907568857
 40
0.627905768468467
 40
0.9305267127661404
 40
1.0
 40
1.0
 40
1.0
 40
1.0
 10
-536.5923989370227
 20
-357.8637877231319
 30
0.0
 10
-536.7156690546728
 20
-357.8346345249373
 30
0.0
 10
-537.566858775022
 20
-357.6333294309561
 30
0.0
 10
-538.9278122955277
 20
-356.9792560992617
 30
0.0
 10
-540.4024633266727
 20
-356.2162975121635
 30
0.0
 10
-540.9399352520575
 20
-355.8830734555466
 30
0.0
 10
-540.9677151542356
 20
-355.8668217353467
 30
0.0
 10
-540.9729019079119
 20
-355.8637873953064
 30
0.0
  0
LWPOLYLINE
  5
348
330
1F
100
AcDbEntity
  8
0
  6
Continuous
 62
     7
370
    15
100
AcDbPolyline
 90
       13
 70
   128
 43
0.0
 10
-16.000754134
 20
-355.8803239589
 10
-16.2483518284
 20
-356.0271022593
 10
-17.1096389454
 20
-356.5109038478
 10
-18.616325156
 20
-357.246857298
 10
-20.8765332859
 20
-358.032226724
 10
-22.9465429943
 20
-358.349943695
 10
-25.0848596256
 20
-358.2346981143
 10
-26.9586508434
 20
-357.7736710882
 10
-28.7705724399
 20
-357.0471947765
 10
-30.2794640224
 20
-356.2671338891
 10
-30.9481089275
 20
-355.8786326771
 10
-30.9729044597
 20
-355.8637873953
 10
-30.9729044597
 20
-355.8637873953
  0
LWPOLYLINE
  5
349
330
1F
100
AcDbEntity
  8
0
  6
Continuous
 62
     7
370
    15
100
AcDbPolyline
 90
       13
 70
   128
 43
0.0
 10
1003.9992267926
 20
-355.8803239589
 10
1003.7516290982
 20
-356.0271022593
 10
1002.8903419812
 20
-356.5109038478
 10
1001.3836557705
 20
-357.246857298
 10
999.1234476406
 20
-358.032226724
 10
997.0534975369
 20
-358.349943695
 10
994.9151213009
 20
-358.2346981143
 10
993.0412704785
 20
-357.7736710882
 10
991.2294084866
 20
-357.0471947765
 10
989.7205765087
 20
-356.2671338891
 10
989.0518123944
 20
-355.8786326771
 10
989.0271360714
 20
-355.8637873953
 10
989.0271360714
 20
-355.8637873953
  0
LWPOLYLINE
  5
34A
330
1F
100
AcDbEntity
  8
0
  6
Continuous
 62
     7
370
    15
100
AcDbPolyline
 90
       13
 70
   128
 43
0.0
 10
1513.9993364651
 20
-355.8803239589
 10
1513.7516195614
 20
-356.0271022593
 10
1512.8904516537
 20
-356.5109038478
 10
1511.3836462338
 20
-357.246857298
 10
1509.1234381039
 20
-358.032226724
 10
1507.0534880001
 20
-358.349943695
 10
1504.9151117642
 20
-358.2346981143
 10
1503.041380151
 20
-357.7736710882
 10
1501.2293989498
 20
-357.0471947765
 10
1499.7204477627
 20
-356.2671338891
 10
1499.0519220669
 20
-355.8786326771
 10
1499.0271265347
 20
-355.8637873953
 10
1499.0271265347
 20
-355.8637873953
  0
LWPOLYLINE
  5
34B
330
1F
100
AcDbEntity
  8
0
  6
Continuous
 62
     7
370
    15
100
AcDbPolyline
 90
       13
 70
   128
 43
0.0
 10
493.9992363293
 20
-355.8803239589
 10
493.7516386349
 20
-356.0271022593
 10
492.8903515179
 20
-356.5109038478
 10
491.3836653073
 20
-357.246857298
 10
489.1234571774
 20
-358.032226724
 10
487.0535070736
 20
-358.349943695
 10
484.9151308377
 20
-358.2346981143
 10
483.0412800152
 20
-357.7736710882
 10
481.2294180233
 20
-357.0471947765
 10
479.7205860455
 20
-356.2671338891
 10
479.0518219311
 20
-355.8786326771
 10
479.0271456082
 20
-355.8637873953
 10
479.0271456082
 20
-355.8637873953
  0
LINE
  5
34C
330
1F
100
AcDbEntity
  8
0
  6
Continuous
 62
     7
370
    15
100
AcDbLine
 10
-503.4729027461
 20
-333.8637875145
 30
0.0
 11
-563.472901405
 21
-333.8637875145
 31
0.0
  0
LINE
  5
34D
330
1F
100
AcDbEntity
  8
0
  6
Continuous
 62
     7
370
    15
100
AcDbLine
 10
-503.4977169048
 20
-335.8637876095
 30
0.0
 11
-503.4729027461
 21
-335.8637876095
 31
0.0
  0
LINE
  5
34E
330
1F
100
AcDbEntity
  8
0
  6
Continuous
 62
     7
370
    15
100
AcDbLine
 10
-563.472901405
 20
-335.8637876095
 30
0.0
 11
-503.4977169048
 21
-335.8637876095
 31
0.0
  0
LINE
  5
34F
330
1F
100
AcDbEntity
  8
0
  6
Continuous
 62
     7
370
    15
100
AcDbLine
 10
-518.4729024108
 20
-337.8637877045
 30
0.0
 11
-548.4729017403
 21
-337.8637877045
 31
0.0
  0
LINE
  5
350
330
1F
100
AcDbEntity
  8
0
  6
Continuous
 62
     7
370
    15
100
AcDbLine
 10
1536.5270311672
 20
-333.8637875145
 30
0.0
 11
1476.5270883877
 21
-333.8637875145
 31
0.0
  0
LINE
  5
351
330
1F
100
AcDbEntity
  8
0
  6
Continuous
 62
     7
370
    15
100
AcDbLine
 10
1536.502235635
 20
-335.8637876095
 30
0.0
 11
1536.5270311672
 21
-335.8637876095
 31
0.0
  0
LINE
  5
352
330
1F
100
AcDbEntity
  8
0
  6
Continuous
 62
     7
370
    15
100
AcDbLine
 10
1476.5270883877
 20
-335.8637876095
 30
0.0
 11
1536.502235635
 21
-335.8637876095
 31
0.0
  0
LINE
  5
353
330
1F
100
AcDbEntity
  8
0
  6
Continuous
 62
     7
370
    15
100
AcDbLine
 10
1521.5271646817
 20
-337.8637877045
 30
0.0
 11
1491.5271932919
 21
-337.8637877045
 31
0.0
  0
LINE
  5
354
330
1F
100
AcDbEntity
  8
0
  6
Continuous
 62
     7
370
    15
100
AcDbLine
 10
6.5022642453
 20
-335.8637876095
 30
0.0
 11
6.5271193821
 21
-335.8637876095
 31
0.0
  0
LINE
  5
355
330
1F
100
AcDbEntity
  8
0
  6
Continuous
 62
     7
370
    15
100
AcDbLine
 10
-53.4729128044
 20
-335.8637876095
 30
0.0
 11
6.5022642453
 21
-335.8637876095
 31
0.0
  0
LINE
  5
356
330
1F
100
AcDbEntity
  8
0
  6
Continuous
 62
     7
370
    15
100
AcDbLine
 10
6.5271193821
 20
-333.8637875145
 30
0.0
 11
-53.4729128044
 21
-333.8637875145
 31
0.0
  0
LINE
  5
357
330
1F
100
AcDbEntity
  8
0
  6
Continuous
 62
     7
370
    15
100
AcDbLine
 10
-8.4729259174
 20
-337.8637877045
 30
0.0
 11
-38.4728973072
 21
-337.8637877045
 31
0.0
  0
LINE
  5
358
330
1F
100
AcDbEntity
  8
0
  6
Continuous
 62
     7
370
    15
100
AcDbLine
 10
1026.527040704
 20
-333.8637875145
 30
0.0
 11
966.5270979245
 21
-333.8637875145
 31
0.0
  0
LINE
  5
359
330
1F
100
AcDbEntity
  8
0
  6
Continuous
 62
     7
370
    15
100
AcDbLine
 10
1026.5022451718
 20
-335.8637876095
 30
0.0
 11
1026.527040704
 21
-335.8637876095
 31
0.0
  0
LINE
  5
35A
330
1F
100
AcDbEntity
  8
0
  6
Continuous
 62
     7
370
    15
100
AcDbLine
 10
966.5270979245
 20
-335.8637876095
 30
0.0
 11
1026.5022451718
 21
-335.8637876095
 31
0.0
  0
LINE
  5
35B
330
1F
100
AcDbEntity
  8
0
  6
Continuous
 62
     7
370
    15
100
AcDbLine
 10
1011.5270550091
 20
-337.8637877045
 30
0.0
 11
981.5270836193
 21
-337.8637877045
 31
0.0
  0
LINE
  5
35C
330
1F
100
AcDbEntity
  8
0
  6
Continuous
 62
     7
370
    15
100
AcDbLine
 10
516.5270502407
 20
-333.8637875145
 30
0.0
 11
456.5271074612
 21
-333.8637875145
 31
0.0
  0
LINE
  5
35D
330
1F
100
AcDbEntity
  8
0
  6
Continuous
 62
     7
370
    15
100
AcDbLine
 10
516.5022547085
 20
-335.8637876095
 30
0.0
 11
516.5270502407
 21
-335.8637876095
 31
0.0
  0
LINE
  5
35E
330
1F
100
AcDbEntity
  8
0
  6
Continuous
 62
     7
370
    15
100
AcDbLine
 10
456.5271074612
 20
-335.8637876095
 30
0.0
 11
516.5022547085
 21
-335.8637876095
 31
0.0
  0
LINE
  5
35F
330
1F
100
AcDbEntity
  8
0
  6
Continuous
 62
     7
370
    15
100
AcDbLine
 10
501.5270645458
 20
-337.8637877045
 30
0.0
 11
471.5270931561
 21
-337.8637877045
 31
0.0
  0
LINE
  5
360
330
1F
100
AcDbEntity
  8
0
  6
Continuous
 62
     8
370
    15
100
AcDbLine
 10
202.0270759899
 20
-356.0337872928
 30
0.0
 11
172.0271046002
 21
-356.0337872928
 31
0.0
  0
LINE
  5
361
330
1F
100
AcDbEntity
  8
0
  6
Continuous
 62
     8
370
    15
100
AcDbLine
 10
201.6923363049
 20
-357.1637870496
 30
0.0
 11
202.0270759899
 21
-357.1637870496
 31
0.0
  0
LINE
  5
362
330
1F
100
AcDbEntity
  8
0
  6
Continuous
 62
     8
370
    15
100
AcDbLine
 10
172.0271046002
 20
-357.1637870496
 30
0.0
 11
201.6923363049
 21
-357.1637870496
 31
0.0
  0
LINE
  5
363
330
1F
100
AcDbEntity
  8
0
  6
Continuous
 62
     8
370
    15
100
AcDbLine
 10
172.1950108845
 20
-355.8363767093
 30
0.0
 11
201.8591697056
 21
-355.8363767093
 31
0.0
  0
LINE
  5
364
330
1F
100
AcDbEntity
  8
0
  6
Continuous
 62
     8
370
    15
100
AcDbLine
 10
196.55948232
 20
-357.5637882328
 30
0.0
 11
177.277081712
 21
-357.5637882328
 31
0.0
  0
LINE
  5
365
330
1F
100
AcDbEntity
  8
0
  6
Continuous
 62
     8
370
    15
100
AcDbLine
 10
196.7770988781
 20
-357.5637882328
 30
0.0
 11
196.55948232
 21
-357.5637882328
 31
0.0
  0
LINE
  5
366
330
1F
100
AcDbEntity
  8
0
  6
Continuous
 62
     8
370
    15
100
AcDbLine
 10
-548.9729018222
 20
-356.0337872928
 30
0.0
 11
-578.9729011517
 21
-356.0337872928
 31
0.0
  0
LINE
  5
367
330
1F
100
AcDbEntity
  8
0
  6
Continuous
 62
     8
370
    15
100
AcDbLine
 10
-549.307669447
 20
-357.1637870496
 30
0.0
 11
-548.9729018222
 21
-357.1637870496
 31
0.0
  0
LINE
  5
368
330
1F
100
AcDbEntity
  8
0
  6
Continuous
 62
     8
370
    15
100
AcDbLine
 10
-578.9729011517
 20
-357.1637870496
 30
0.0
 11
-549.307669447
 21
-357.1637870496
 31
0.0
  0
LINE
  5
369
330
1F
100
AcDbEntity
  8
0
  6
Continuous
 62
     8
370
    15
100
AcDbLine
 10
-578.8049836915
 20
-355.8363767093
 30
0.0
 11
-549.1408211451
 21
-355.8363767093
 31
0.0
  0
LINE
  5
36A
330
1F
100
AcDbEntity
  8
0
  6
Continuous
 62
     8
370
    15
100
AcDbLine
 10
-554.4405010801
 20
-357.5637882328
 30
0.0
 11
-573.7229016881
 21
-357.5637882328
 31
0.0
  0
LINE
  5
36B
330
1F
100
AcDbEntity
  8
0
  6
Continuous
 62
     8
370
    15
100
AcDbLine
 10
-554.2229012858
 20
-357.5637882328
 30
0.0
 11
-554.4405010801
 21
-357.5637882328
 31
0.0
  0
LINE
  5
36C
330
1F
100
AcDbEntity
  8
0
  6
Continuous
 62
     8
370
    15
100
AcDbLine
 10
-576.4729035359
 20
-392.6954010254
 30
0.0
 11
-551.4729013007
 21
-392.6954010254
 31
0.0
  0
LINE
  5
36D
330
1F
100
AcDbEntity
  8
0
  6
Continuous
 62
     8
370
    15
100
AcDbLine
 10
-551.638965429
 20
-392.8924986845
 30
0.0
 11
-576.3068375449
 21
-392.8924986845
 31
0.0
  0
LINE
  5
36E
330
1F
100
AcDbEntity
  8
0
  6
Continuous
 62
     8
370
    15
100
AcDbLine
 10
174.527102216
 20
-392.6954010254
 30
0.0
 11
199.5270783741
 21
-392.6954010254
 31
0.0
  0
LINE
  5
36F
330
1F
100
AcDbEntity
  8
0
  6
Continuous
 62
     8
370
    15
100
AcDbLine
 10
199.3610198338
 20
-392.8924986845
 30
0.0
 11
174.6931607563
 21
-392.8924986845
 31
0.0
  0
LINE
  5
370
330
1F
100
AcDbEntity
  8
0
  6
Continuous
 62
     8
370
    15
100
AcDbLine
 10
1545.5270941098
 20
-394.293788982
 30
0.0
 11
1575.5270654995
 21
-394.293788982
 31
0.0
  0
LINE
  5
371
330
1F
100
AcDbEntity
  8
0
  6
Continuous
 62
     8
370
    15
100
AcDbLine
 10
1575.3592188198
 20
-394.4911995655
 30
0.0
 11
1545.6949407894
 21
-394.4911995655
 31
0.0
  0
LINE
  5
372
330
1F
100
AcDbEntity
  8
0
  6
Continuous
 62
     8
370
    15
100
AcDbLine
 10
-614.472902314
 20
-394.293788982
 30
0.0
 11
-584.4729011219
 21
-394.293788982
 31
0.0
  0
LINE
  5
373
330
1F
100
AcDbEntity
  8
0
  6
Continuous
 62
     8
370
    15
100
AcDbLine
 10
-584.6408223074
 20
-394.4911995655
 30
0.0
 11
-614.3049811285
 21
-394.4911995655
 31
0.0
  0
LWPOLYLINE
  5
374
330
1F
100
AcDbEntity
  8
0
  6
Continuous
 62
     7
370
    15
100
AcDbPolyline
 90
        3
 70
   128
 43
0.0
 10
-1149.2117639563
 20
2137.8820244233
 10
-1148.4314013204
 20
2137.9588832158
 10
-1148.1783386252
 20
2138.0178256902
  0
LWPOLYLINE
  5
375
330
1F
100
AcDbEntity
  8
0
  6
Continuous
 62
     7
370
    15
100
AcDbPolyline
 90
        3
 70
   128
 43
0.0
 10
-1148.1783386252
 20
2152.646222991
 10
-1148.4314013204
 20
2152.7051654655
 10
-1149.2117639563
 20
2152.7820242579
  0
LINE
  5
376
330
1F
100
AcDbEntity
  8
0
  6
Continuous
 62
     7
370
    15
100
AcDbLine
 10
-1159.0117622099
 20
2152.7820242579
 30
0.0
 11
-1159.2117618701
 21
2152.582024132
 31
0.0
  0
LINE
  5
377
330
1F
100
AcDbEntity
  8
0
  6
Continuous
 62
     7
370
    15
100
AcDbLine
 10
-1159.2117618701
 20
2138.0820245492
 30
0.0
 11
-1159.0117622099
 21
2137.8820244233
 31
0.0
  0
LINE
  5
378
330
1F
100
AcDbEntity
  8
0
  6
Continuous
 62
     7
370
    15
100
AcDbLine
 10
-1159.4117615304
 20
2137.8820244233
 30
0.0
 11
-1159.2117618701
 21
2138.0820245492
 31
0.0
  0
LINE
  5
379
330
1F
100
AcDbEntity
  8
0
  6
Continuous
 62
     7
370
    15
100
AcDbLine
 10
-1159.2117618701
 20
2152.582024132
 30
0.0
 11
-1159.4117615304
 21
2152.7820242579
 31
0.0
  0
LINE
  5
37A
330
1F
100
AcDbEntity
  8
0
  6
Continuous
 62
     7
370
    15
100
AcDbLine
 10
-1159.4117615304
 20
2152.7820242579
 30
0.0
 11
-1163.1109189174
 21
2152.7820242579
 31
0.0
  0
LINE
  5
37B
330
1F
100
AcDbEntity
  8
0
  6
Continuous
 62
     7
370
    15
100
AcDbLine
 10
-1165.7490689239
 20
2152.7820242579
 30
0.0
 11
-1165.8105846426
 21
2152.7820242579
 31
0.0
  0
LINE
  5
37C
330
1F
100
AcDbEntity
  8
0
  6
Continuous
 62
     7
370
    15
100
AcDbLine
 10
-1165.8449541709
 20
2137.8820244233
 30
0.0
 11
-1165.7490689239
 21
2137.8820244233
 31
0.0
  0
LINE
  5
37D
330
1F
100
AcDbEntity
  8
0
  6
Continuous
 62
     7
370
    15
100
AcDbLine
 10
-1163.1109189174
 20
2137.8820244233
 30
0.0
 11
-1159.4117615304
 21
2137.8820244233
 31
0.0
  0
LINE
  5
37E
330
1F
100
AcDbEntity
  8
0
  6
Continuous
 62
     7
370
    15
100
AcDbLine
 10
-1149.2117639563
 20
2152.7820242579
 30
0.0
 11
-1159.0117622099
 21
2152.7820242579
 31
0.0
  0
LINE
  5
37F
330
1F
100
AcDbEntity
  8
0
  6
Continuous
 62
     7
370
    15
100
AcDbLine
 10
-1159.0117622099
 20
2137.8820244233
 30
0.0
 11
-1149.2117639563
 21
2137.8820244233
 31
0.0
  0
ARC
  5
380
330
1F
100
AcDbEntity
  8
0
  6
Continuous
 62
     7
370
    15
100
AcDbCircle
 10
-1144.511763092
 20
2198.6320243406
 30
0.0
 40
0.2000000000000455
100
AcDbArc
 50
90.0
 51
180.0
  0
ARC
  5
381
330
1F
100
AcDbEntity
  8
0
  6
Continuous
 62
     7
370
    15
100
AcDbCircle
 10
-1144.511763092
 20
2169.0320243406
 30
0.0
 40
0.2000000000002728
100
AcDbArc
 50
180.0
 51
270.0
  0
ARC
  5
382
330
1F
100
AcDbEntity
  8
0
  6
Continuous
 62
     7
370
    15
100
AcDbCircle
 10
-1143.3817622433
 20
2169.0320243406
 30
0.0
 40
0.2000000000003763
100
AcDbArc
 50
270.0
 51
350.7694259591
  0
ARC
  5
383
330
1F
100
AcDbEntity
  8
0
  6
Continuous
 62
     7
370
    15
100
AcDbCircle
 10
-1143.3817622433
 20
2198.6320243406
 30
0.0
 40
0.2000000000003034
100
AcDbArc
 50
9.2305740408
 51
90.0
  0
LINE
  5
384
330
1F
100
AcDbEntity
  8
0
  6
Continuous
 62
     7
370
    15
100
AcDbLine
 10
-1143.3817628703
 20
2198.8320247281
 30
0.0
 11
-1144.5117626271
 21
2198.8320247281
 31
0.0
  0
LINE
  5
385
330
1F
100
AcDbEntity
  8
0
  6
Continuous
 62
     7
370
    15
100
AcDbLine
 10
-1144.5117626271
 20
2168.832023536
 30
0.0
 11
-1143.3817628703
 21
2168.832023536
 31
0.0
  0
ARC
  5
386
330
1F
100
AcDbEntity
  8
0
  6
Continuous
 62
     7
370
    15
100
AcDbCircle
 10
-1261.6304491743
 20
2188.2488929489
 30
0.0
 40
120.0000000000001
100
AcDbArc
 50
350.7694259592
 51
356.6681598255
  0
ARC
  5
387
330
1F
100
AcDbEntity
  8
0
  6
Continuous
 62
     7
370
    15
100
AcDbCircle
 10
-1261.6304491743
 20
2179.4151557324
 30
0.0
 40
120.0000000000001
100
AcDbArc
 50
3.3313005321
 51
9.2305740408
  0
ARC
  5
388
330
1F
100
AcDbEntity
  8
0
  6
Continuous
 62
     7
370
    15
100
AcDbCircle
 10
-1144.911763092
 20
2193.7820243406
 30
0.0
 40
0.2000000000002728
100
AcDbArc
 50
270.0
 51
0.0
  0
ARC
  5
389
330
1F
100
AcDbEntity
  8
0
  6
Continuous
 62
     7
370
    15
100
AcDbCircle
 10
-1144.911763092
 20
2173.8820243406
 30
0.0
 40
0.2000000000002728
100
AcDbArc
 50
0.0
 51
90.0
  0
LINE
  5
38A
330
1F
100
AcDbEntity
  8
0
  6
Continuous
 62
     7
370
    15
100
AcDbLine
 10
-1144.9117638102
 20
2193.5820252645
 30
0.0
 11
-1145.2117633006
 21
2193.5820252645
 31
0.0
  0
LINE
  5
38B
330
1F
100
AcDbEntity
  8
0
  6
Continuous
 62
     7
370
    15
100
AcDbLine
 10
-1145.2117633006
 20
2174.0820248622
 30
0.0
 11
-1144.9117638102
 21
2174.0820248622
 31
0.0
  0
LINE
  5
38C
330
1F
100
AcDbEntity
  8
0
  6
Continuous
 62
     7
370
    15
100
AcDbLine
 10
-1180.0433766029
 20
2171.3320248771
 30
0.0
 11
-1178.7117641351
 21
2171.3320248771
 31
0.0
  0
LINE
  5
38D
330
1F
100
AcDbEntity
  8
0
  6
Continuous
 62
     7
370
    15
100
AcDbLine
 10
-1178.7117641351
 20
2196.332023387
 30
0.0
 11
-1180.0433766029
 21
2196.332023387
 31
0.0
  0
ARC
  5
38E
330
1F
100
AcDbEntity
  8
0
  6
Continuous
 62
     7
370
    15
100
AcDbCircle
 10
-1180.0433757943
 20
2196.1320243406
 30
0.0
 40
0.2000000000001795
100
AcDbArc
 50
90.0
 51
170.2307482568
  0
ARC
  5
38F
330
1F
100
AcDbEntity
  8
0
  6
Continuous
 62
     7
370
    15
100
AcDbCircle
 10
-1180.0433757943
 20
2171.5320243406
 30
0.0
 40
0.2000000000001023
100
AcDbArc
 50
189.7692517431
 51
270.0
  0
ARC
  5
390
330
1F
100
AcDbEntity
  8
0
  6
Continuous
 62
     7
370
    15
100
AcDbCircle
 10
-1061.9805835038
 20
2175.80428279
 30
0.0
 40
120.0000000000002
100
AcDbArc
 50
170.2307482568
 51
176.16417102
  0
ARC
  5
391
330
1F
100
AcDbEntity
  8
0
  6
Continuous
 62
     7
370
    15
100
AcDbCircle
 10
-1061.9805835038
 20
2191.8597658912
 30
0.0
 40
120.0000000000003
100
AcDbArc
 50
183.83582898
 51
189.7692517432
  0
LINE
  5
392
330
1F
100
AcDbEntity
  8
0
  6
Continuous
 62
     7
370
    15
100
AcDbLine
 10
-1145.2117633006
 20
2212.8320270228
 30
0.0
 11
-1146.7117626152
 21
2212.8320270228
 31
0.0
  0
LINE
  5
393
330
1F
100
AcDbEntity
  8
0
  6
Continuous
 62
     7
370
    15
100
AcDbLine
 10
-1164.7117618403
 20
2212.8320270228
 30
0.0
 11
-1166.2117648802
 21
2212.8320270228
 31
0.0
  0
LINE
  5
394
330
1F
100
AcDbEntity
  8
0
  6
Continuous
 62
     7
370
    15
100
AcDbLine
 10
-1147.5877255133
 20
2154.8320240352
 30
0.0
 11
-1147.512413182
 21
2154.8320240352
 31
0.0
  0
LINE
  5
395
330
1F
100
AcDbEntity
  8
0
  6
Continuous
 62
     7
370
    15
100
AcDbLine
 10
-1146.7117626152
 20
2212.8320270228
 30
0.0
 11
-1147.7321922711
 21
2212.8320270228
 31
0.0
  0
ARC
  5
396
330
1F
100
AcDbEntity
  8
0
  6
Continuous
 62
     7
370
    15
100
AcDbCircle
 10
-1155.7378145153
 20
2222.4320243406
 30
0.0
 40
12.50000000000006
100
AcDbArc
 50
230.1746287392
 51
309.8253712608
  0
LINE
  5
397
330
1F
100
AcDbEntity
  8
0
  6
Continuous
 62
     7
370
    15
100
AcDbLine
 10
-1163.7434359572
 20
2212.8320270228
 30
0.0
 11
-1164.7117618403
 21
2212.8320270228
 31
0.0
  0
LINE
  5
398
330
1F
100
AcDbEntity
  8
0
  6
Continuous
 62
     7
370
    15
100
AcDbLine
 10
-1172.4117617986
 20
2168.832023536
 30
0.0
 11
-1167.0117635212
 21
2168.832023536
 31
0.0
  0
LINE
  5
399
330
1F
100
AcDbEntity
  8
0
  6
Continuous
 62
     7
370
    15
100
AcDbLine
 10
-1167.0117635212
 20
2198.8320247281
 30
0.0
 11
-1172.4117617986
 21
2198.8320247281
 31
0.0
  0
LINE
  5
39A
330
1F
100
AcDbEntity
  8
0
  6
Continuous
 62
     7
370
    15
100
AcDbLine
 10
-1167.0117635212
 20
2168.832023536
 30
0.0
 11
-1166.7117621681
 21
2169.132024889
 31
0.0
  0
LINE
  5
39B
330
1F
100
AcDbEntity
  8
0
  6
Continuous
 62
     7
370
    15
100
AcDbLine
 10
-1166.7117621681
 20
2198.532023375
 30
0.0
 11
-1167.0117635212
 21
2198.8320247281
 31
0.0
  0
LINE
  5
39C
330
1F
100
AcDbEntity
  8
0
  6
Continuous
 62
     7
370
    15
100
AcDbLine
 10
-1172.4117617986
 20
2198.8320247281
 30
0.0
 11
-1172.7117631516
 21
2198.532023375
 31
0.0
  0
LINE
  5
39D
330
1F
100
AcDbEntity
  8
0
  6
Continuous
 62
     7
370
    15
100
AcDbLine
 10
-1172.7117631516
 20
2169.132024889
 30
0.0
 11
-1172.4117617986
 21
2168.832023536
 31
0.0
  0
LINE
  5
39E
330
1F
100
AcDbEntity
  8
0
  6
Continuous
 62
     7
370
    15
100
AcDbLine
 10
-1166.7117621681
 20
2174.0820248622
 30
0.0
 11
-1166.2117648802
 21
2174.0820248622
 31
0.0
  0
LINE
  5
39F
330
1F
100
AcDbEntity
  8
0
  6
Continuous
 62
     7
370
    15
100
AcDbLine
 10
-1166.2117648802
 20
2193.5820252645
 30
0.0
 11
-1166.7117621681
 21
2193.5820252645
 31
0.0
  0
LINE
  5
3A0
330
1F
100
AcDbEntity
  8
0
  6
Continuous
 62
     7
370
    15
100
AcDbLine
 10
-1172.7117631516
 20
2198.8320247281
 30
0.0
 11
-1178.7117641351
 21
2198.8320247281
 31
0.0
  0
LINE
  5
3A1
330
1F
100
AcDbEntity
  8
0
  6
Continuous
 62
     7
370
    15
100
AcDbLine
 10
-1156.6235940835
 20
54.331944232
 30
0.0
 11
-1156.9028753719
 21
70.3319766569
 31
0.0
  0
LINE
  5
3A2
330
1F
100
AcDbEntity
  8
0
  6
Continuous
 62
     7
370
    15
100
AcDbLine
 10
-1161.5206520936
 20
70.3319766569
 30
0.0
 11
-1161.799933382
 21
54.331944232
 31
0.0
  0
ARC
  5
3A3
330
1F
100
AcDbEntity
  8
0
  6
Continuous
 62
     7
370
    15
100
AcDbCircle
 10
-1181.6417639407
 20
2160.1320243406
 30
0.0
 40
0.2000000000002728
100
AcDbArc
 50
90.0
 51
170.7694259591
  0
ARC
  5
3A4
330
1F
100
AcDbEntity
  8
0
  6
Continuous
 62
     7
370
    15
100
AcDbCircle
 10
-1181.6417639407
 20
2130.5320243406
 30
0.0
 40
0.1999999999998545
100
AcDbArc
 50
189.2305740408
 51
270.0
  0
LINE
  5
3A5
330
1F
100
AcDbEntity
  8
0
  6
Continuous
 62
     7
370
    15
100
AcDbLine
 10
-1181.6417645595
 20
2130.3320246759
 30
0.0
 11
-1180.3117614171
 21
2130.3320246759
 31
0.0
  0
LINE
  5
3A6
330
1F
100
AcDbEntity
  8
0
  6
Continuous
 62
     7
370
    15
100
AcDbLine
 10
-1180.3117614171
 20
2160.3320240054
 30
0.0
 11
-1181.6417645595
 21
2160.3320240054
 31
0.0
  0
ARC
  5
3A7
330
1F
100
AcDbEntity
  8
0
  6
Continuous
 62
     7
370
    15
100
AcDbCircle
 10
-1063.3930770097
 20
2140.9151557324
 30
0.0
 40
120.0
100
AcDbArc
 50
170.7694259592
 51
176.4874053343
  0
ARC
  5
3A8
330
1F
100
AcDbEntity
  8
0
  6
Continuous
 62
     7
370
    15
100
AcDbCircle
 10
-1063.3930770097
 20
2149.7488929489
 30
0.0
 40
119.9999999999999
100
AcDbArc
 50
183.5116471215
 51
189.2305740408
  0
LINE
  5
3A9
330
1F
100
AcDbEntity
  8
0
  6
Continuous
 62
     7
370
    15
100
AcDbLine
 10
-1172.3117638311
 20
2165.3320238936
 30
0.0
 11
-1180.3117614171
 21
2165.3320238936
 31
0.0
  0
LINE
  5
3AA
330
1F
100
AcDbEntity
  8
0
  6
Continuous
 62
     7
370
    15
100
AcDbLine
 10
-1180.3117614171
 20
2125.3320247877
 30
0.0
 11
-1172.3117638311
 21
2125.3320247877
 31
0.0
  0
LINE
  5
3AB
330
1F
100
AcDbEntity
  8
0
  6
Continuous
 62
     7
370
    15
100
AcDbLine
 10
-1141.511763998
 20
2129.3320235807
 30
0.0
 11
-1139.7117633304
 21
2131.1320242482
 31
0.0
  0
LINE
  5
3AC
330
1F
100
AcDbEntity
  8
0
  6
Continuous
 62
     7
370
    15
100
AcDbLine
 10
-1139.7117633304
 20
2159.532024433
 30
0.0
 11
-1141.511763998
 21
2161.3320251006
 31
0.0
  0
LINE
  5
3AD
330
1F
100
AcDbEntity
  8
0
  6
Continuous
 62
     7
370
    15
100
AcDbLine
 10
-1141.511763998
 20
2161.3320251006
 30
0.0
 11
-1172.3117638311
 21
2161.3320251006
 31
0.0
  0
LINE
  5
3AE
330
1F
100
AcDbEntity
  8
0
  6
Continuous
 62
     7
370
    15
100
AcDbLine
 10
-1172.3117638311
 20
2129.3320235807
 30
0.0
 11
-1141.511763998
 21
2129.3320235807
 31
0.0
  0
LINE
  5
3AF
330
1F
100
AcDbEntity
  8
0
  6
Continuous
 62
     7
370
    15
100
AcDbLine
 10
-1125.211763282
 20
2152.832024173
 30
0.0
 11
-1139.7117633304
 21
2152.832024173
 31
0.0
  0
LINE
  5
3B0
330
1F
100
AcDbEntity
  8
0
  6
Continuous
 62
     7
370
    15
100
AcDbLine
 10
-1139.7117633304
 20
2137.8320245083
 30
0.0
 11
-1125.211763282
 21
2137.8320245083
 31
0.0
  0
LINE
  5
3B1
330
1F
100
AcDbEntity
  8
0
  6
Continuous
 62
     7
370
    15
100
AcDbLine
 10
-1123.211763187
 20
2175.3320236701
 30
0.0
 11
-1125.211763282
 21
2160.3320240054
 31
0.0
  0
LINE
  5
3B2
330
1F
100
AcDbEntity
  8
0
  6
Continuous
 62
     7
370
    15
100
AcDbLine
 10
-1125.211763282
 20
2130.3320246759
 30
0.0
 11
-1123.211763187
 21
2115.3320250112
 31
0.0
  0
LINE
  5
3B3
330
1F
100
AcDbEntity
  8
0
  6
Continuous
 62
     7
370
    15
100
AcDbLine
 10
-1121.211763092
 20
2175.3320236701
 30
0.0
 11
-1123.211763187
 21
2175.3320236701
 31
0.0
  0
LINE
  5
3B4
330
1F
100
AcDbEntity
  8
0
  6
Continuous
 62
     7
370
    15
100
AcDbLine
 10
-1123.211763187
 20
2115.3320250112
 30
0.0
 11
-1121.211763092
 21
2115.3320250112
 31
0.0
  0
CIRCLE
  5
3B5
330
1F
100
AcDbEntity
  8
0
  6
Continuous
 62
     7
370
    15
100
AcDbCircle
 10
-1155.711763092
 20
2145.3320243406
 30
0.0
 40
12.49999999999977
  0
CIRCLE
  5
3B6
330
1F
100
AcDbEntity
  8
0
  6
Continuous
 62
     7
370
    15
100
AcDbCircle
 10
-1155.711763092
 20
2145.3320243406
 30
0.0
 40
10.49999999999977
  0
LINE
  5
3B7
330
1F
100
AcDbEntity
  8
0
  6
Continuous
 62
     7
370
    15
100
AcDbLine
 10
-1159.2117618701
 20
2143.7241587798
 30
0.0
 11
-1159.2117618701
 21
2152.582024132
 31
0.0
  0
LINE
  5
3B8
330
1F
100
AcDbEntity
  8
0
  6
Continuous
 62
     7
370
    15
100
AcDbLine
 10
-1159.2117618701
 20
2138.0820245492
 30
0.0
 11
-1159.2117618701
 21
2143.7241587798
 31
0.0
  0
LINE
  5
3B9
330
1F
100
AcDbEntity
  8
0
  6
Continuous
 62
     7
370
    15
100
AcDbLine
 10
-1159.0117622099
 20
2143.6798039601
 30
0.0
 11
-1159.0117622099
 21
2152.7820242579
 31
0.0
  0
LINE
  5
3BA
330
1F
100
AcDbEntity
  8
0
  6
Continuous
 62
     7
370
    15
100
AcDbLine
 10
-1159.0117622099
 20
2137.8820244233
 30
0.0
 11
-1159.0117622099
 21
2143.6798039601
 31
0.0
  0
LINE
  5
3BB
330
1F
100
AcDbEntity
  8
0
  6
Continuous
 62
     7
370
    15
100
AcDbLine
 10
-1159.4117615304
 20
2143.6798039601
 30
0.0
 11
-1159.4117615304
 21
2152.7820242579
 31
0.0
  0
LINE
  5
3BC
330
1F
100
AcDbEntity
  8
0
  6
Continuous
 62
     7
370
    15
100
AcDbLine
 10
-1159.4117615304
 20
2137.8820244233
 30
0.0
 11
-1159.4117615304
 21
2143.6798039601
 31
0.0
  0
LINE
  5
3BD
330
1F
100
AcDbEntity
  8
0
  6
Continuous
 62
     7
370
    15
100
AcDbLine
 10
-1179.2117614231
 20
60.3319861937
 30
0.0
 11
-1179.2117614231
 21
2110.3320241916
 31
0.0
  0
LINE
  5
3BE
330
1F
100
AcDbEntity
  8
0
  6
Continuous
 62
     7
370
    15
100
AcDbLine
 10
-1179.2117614231
 20
2110.3320241916
 30
0.0
 11
-1139.2117623172
 21
2110.3320241916
 31
0.0
  0
LINE
  5
3BF
330
1F
100
AcDbEntity
  8
0
  6
Continuous
 62
     7
370
    15
100
AcDbLine
 10
-1139.2117623172
 20
60.3319861937
 30
0.0
 11
-1139.2117623172
 21
2110.3320241916
 31
0.0
  0
LINE
  5
3C0
330
1F
100
AcDbEntity
  8
0
  6
Continuous
 62
     7
370
    15
100
AcDbLine
 10
-1155.7117622277
 20
60.3319861937
 30
0.0
 11
-1139.2117623172
 21
60.3319861937
 31
0.0
  0
LINE
  5
3C1
330
1F
100
AcDbEntity
  8
0
  6
Continuous
 62
     7
370
    15
100
AcDbLine
 10
-1155.7117622277
 20
80.3319671202
 30
0.0
 11
-1155.7117622277
 21
60.3319861937
 31
0.0
  0
LINE
  5
3C2
330
1F
100
AcDbEntity
  8
0
  6
Continuous
 62
     7
370
    15
100
AcDbLine
 10
-1155.7117622277
 20
80.3319671202
 30
0.0
 11
-1162.7117615125
 21
80.3319671202
 31
0.0
  0
LINE
  5
3C3
330
1F
100
AcDbEntity
  8
0
  6
Continuous
 62
     7
370
    15
100
AcDbLine
 10
-1162.7117615125
 20
80.3319671202
 30
0.0
 11
-1162.7117615125
 21
60.3319861937
 31
0.0
  0
LINE
  5
3C4
330
1F
100
AcDbEntity
  8
0
  6
Continuous
 62
     7
370
    15
100
AcDbLine
 10
-1179.2117614231
 20
60.3319861937
 30
0.0
 11
-1162.7117615125
 21
60.3319861937
 31
0.0
  0
LINE
  5
3C5
330
1F
100
AcDbEntity
  8
0
  6
Continuous
 62
     7
370
    15
100
AcDbLine
 10
-1144.7117622874
 20
2186.9413488555
 30
0.0
 11
-1144.7117622874
 21
2198.6320250678
 31
0.0
  0
LINE
  5
3C6
330
1F
100
AcDbEntity
  8
0
  6
Continuous
 62
     7
370
    15
100
AcDbLine
 10
-1144.7117622874
 20
2169.0320250589
 30
0.0
 11
-1144.7117622874
 21
2186.9413488555
 31
0.0
  0
LINE
  5
3C7
330
1F
100
AcDbEntity
  8
0
  6
Continuous
 62
     7
370
    15
100
AcDbLine
 10
-1141.8384998969
 20
2186.3890186894
 30
0.0
 11
-1141.8529167703
 21
2186.5794667053
 31
0.0
  0
LINE
  5
3C8
330
1F
100
AcDbEntity
  8
0
  6
Continuous
 62
     7
370
    15
100
AcDbLine
 10
-1141.8529167703
 20
2186.5794667053
 30
0.0
 11
-1141.8529167703
 21
2184.4385013926
 31
0.0
  0
LINE
  5
3C9
330
1F
100
AcDbEntity
  8
0
  6
Continuous
 62
     7
370
    15
100
AcDbLine
 10
-1141.8529167703
 20
2184.4385013926
 30
0.0
 11
-1141.8529167703
 21
2181.691055094
 31
0.0
  0
SPLINE
  5
3CA
330
1F
100
AcDbEntity
  8
0
  6
Continuous
 62
     7
370
    15
100
AcDbSpline
210
0.0
220
0.0
230
1.0
 70
     8
 71
     3
 72
     9
 73
     5
 74
     0
 42
0.000000001
 43
0.00000001
 40
0.0
 40
0.0
 40
0.0
 40
0.0
 40
0.7287302334243986
 40
1.0
 40
1.0
 40
1.0
 40
1.0
 10
-1141.852916770312
 20
2181.691055094003
 30
0.0
 10
-1141.839688726923
 20
2181.589978286461
 30
0.0
 10
-1141.821536545522
 20
2181.451275646024
 30
0.0
 10
-1141.83488603464
 20
2181.312564564957
 30
0.0
 10
-1141.838507347437
 20
2181.274936442375
 30
0.0
  0
LINE
  5
3CB
330
1F
100
AcDbEntity
  8
0
  6
Continuous
 62
     7
370
    15
100
AcDbLine
 10
-1145.2117633006
 20
2161.3320251006
 30
0.0
 11
-1145.2117633006
 21
2212.8320270228
 31
0.0
  0
LINE
  5
3CC
330
1F
100
AcDbEntity
  8
0
  6
Continuous
 62
     7
370
    15
100
AcDbLine
 10
-1146.7117626152
 20
2161.3320251006
 30
0.0
 11
-1146.7117626152
 21
2212.8320270228
 31
0.0
  0
LINE
  5
3CD
330
1F
100
AcDbEntity
  8
0
  6
Continuous
 62
     7
370
    15
100
AcDbLine
 10
-1166.2117648802
 20
2212.8320270228
 30
0.0
 11
-1166.2117648802
 21
2161.3320251006
 31
0.0
  0
LINE
  5
3CE
330
1F
100
AcDbEntity
  8
0
  6
Continuous
 62
     7
370
    15
100
AcDbLine
 10
-1164.7117618403
 20
2212.8320270228
 30
0.0
 11
-1164.7117618403
 21
2161.3320251006
 31
0.0
  0
LINE
  5
3CF
330
1F
100
AcDbEntity
  8
0
  6
Continuous
 62
     7
370
    15
100
AcDbLine
 10
-1147.7321922711
 20
2170.9198941487
 30
0.0
 11
-1147.7321922711
 21
2161.3320251006
 31
0.0
  0
LINE
  5
3D0
330
1F
100
AcDbEntity
  8
0
  6
Continuous
 62
     7
370
    15
100
AcDbLine
 10
-1147.7321922711
 20
2212.8320270228
 30
0.0
 11
-1147.7321922711
 21
2170.9198941487
 31
0.0
  0
LINE
  5
3D1
330
1F
100
AcDbEntity
  8
0
  6
Continuous
 62
     7
370
    15
100
AcDbLine
 10
-1163.7434359572
 20
2161.3320251006
 30
0.0
 11
-1163.7434359572
 21
2212.8320270228
 31
0.0
  0
LINE
  5
3D2
330
1F
100
AcDbEntity
  8
0
  6
Continuous
 62
     7
370
    15
100
AcDbLine
 10
-1142.7117638222
 20
2129.3320235807
 30
0.0
 11
-1142.7117638222
 21
2127.3320251155
 31
0.0
  0
LINE
  5
3D3
330
1F
100
AcDbEntity
  8
0
  6
Continuous
 62
     7
370
    15
100
AcDbLine
 10
-1143.2117629728
 20
2127.3320251155
 30
0.0
 11
-1143.2117629728
 21
2129.3320235807
 31
0.0
  0
LINE
  5
3D4
330
1F
100
AcDbEntity
  8
0
  6
Continuous
 62
     7
370
    15
100
AcDbLine
 10
-1161.2117621979
 20
2129.3320235807
 30
0.0
 11
-1161.2117621979
 21
2127.3320251155
 31
0.0
  0
LINE
  5
3D5
330
1F
100
AcDbEntity
  8
0
  6
Continuous
 62
     7
370
    15
100
AcDbLine
 10
-1161.7117632112
 20
2127.3320251155
 30
0.0
 11
-1161.7117632112
 21
2129.3320235807
 31
0.0
  0
LINE
  5
3D6
330
1F
100
AcDbEntity
  8
0
  6
Continuous
 62
     7
370
    15
100
AcDbLine
 10
-1167.0117635212
 20
2168.832023536
 30
0.0
 11
-1167.0117635212
 21
2198.8320247281
 31
0.0
  0
LINE
  5
3D7
330
1F
100
AcDbEntity
  8
0
  6
Continuous
 62
     7
370
    15
100
AcDbLine
 10
-1172.4117617986
 20
2198.8320247281
 30
0.0
 11
-1172.4117617986
 21
2168.832023536
 31
0.0
  0
LINE
  5
3D8
330
1F
100
AcDbEntity
  8
0
  6
Continuous
 62
     7
370
    15
100
AcDbLine
 10
-1166.7117621681
 20
2198.532023375
 30
0.0
 11
-1166.7117621681
 21
2169.132024889
 31
0.0
  0
LINE
  5
3D9
330
1F
100
AcDbEntity
  8
0
  6
Continuous
 62
     7
370
    15
100
AcDbLine
 10
-1142.7117638222
 20
2110.3320241916
 30
0.0
 11
-1142.7117638222
 21
2127.3320251155
 31
0.0
  0
LINE
  5
3DA
330
1F
100
AcDbEntity
  8
0
  6
Continuous
 62
     7
370
    15
100
AcDbLine
 10
-1172.7117631516
 20
2110.3320241916
 30
0.0
 11
-1172.7117631516
 21
2125.3320247877
 31
0.0
  0
LINE
  5
3DB
330
1F
100
AcDbEntity
  8
0
  6
Continuous
 62
     7
370
    15
100
AcDbLine
 10
-1142.7117638222
 20
2127.3320251155
 30
0.0
 11
-1172.3117638311
 21
2127.3320251155
 31
0.0
  0
LINE
  5
3DC
330
1F
100
AcDbEntity
  8
0
  6
Continuous
 62
     7
370
    15
100
AcDbLine
 10
-1172.7117631516
 20
2183.832024132
 30
0.0
 11
-1178.7117641351
 21
2183.832024132
 31
0.0
  0
LINE
  5
3DD
330
1F
100
AcDbEntity
  8
0
  6
Continuous
 62
     7
370
    15
100
AcDbLine
 10
-1172.7117631516
 20
2183.832024132
 30
0.0
 11
-1172.7117631516
 21
2165.3320238936
 31
0.0
  0
LINE
  5
3DE
330
1F
100
AcDbEntity
  8
0
  6
Continuous
 62
     7
370
    15
100
AcDbLine
 10
-1172.7117631516
 20
2125.3320247877
 30
0.0
 11
-1172.7117631516
 21
2111.3320224929
 31
0.0
  0
LINE
  5
3DF
330
1F
100
AcDbEntity
  8
0
  6
Continuous
 62
     7
370
    15
100
AcDbLine
 10
-1178.7117641351
 20
2183.832024132
 30
0.0
 11
-1178.7117641351
 21
2165.3320238936
 31
0.0
  0
LINE
  5
3E0
330
1F
100
AcDbEntity
  8
0
  6
Continuous
 62
     7
370
    15
100
AcDbLine
 10
-1178.7117641351
 20
2125.3320247877
 30
0.0
 11
-1178.7117641351
 21
2110.3320241916
 31
0.0
  0
LINE
  5
3E1
330
1F
100
AcDbEntity
  8
0
  6
Continuous
 62
     7
370
    15
100
AcDbLine
 10
-1173.7117614529
 20
2110.3320241916
 30
0.0
 11
-1172.7117631516
 21
2111.3320224929
 31
0.0
  0
LINE
  5
3E2
330
1F
100
AcDbEntity
  8
0
  6
Continuous
 62
     7
370
    15
100
AcDbLine
 10
-1172.7117631516
 20
2198.8320247281
 30
0.0
 11
-1172.7117631516
 21
2183.832024132
 31
0.0
  0
LINE
  5
3E3
330
1F
100
AcDbEntity
  8
0
  6
Continuous
 62
     7
370
    15
100
AcDbLine
 10
-1178.7117641351
 20
2198.8320247281
 30
0.0
 11
-1178.7117641351
 21
2183.832024132
 31
0.0
  0
LINE
  5
3E4
330
1F
100
AcDbEntity
  8
0
  6
Continuous
 62
     7
370
    15
100
AcDbLine
 10
-1173.2117641649
 20
54.331944232
 30
0.0
 11
-1173.2117641649
 21
50.3319957304
 31
0.0
  0
LINE
  5
3E5
330
1F
100
AcDbEntity
  8
0
  6
Continuous
 62
     7
370
    15
100
AcDbLine
 10
-1145.2117633006
 20
54.331944232
 30
0.0
 11
-1145.2117633006
 21
50.3319957304
 31
0.0
  0
LINE
  5
3E6
330
1F
100
AcDbEntity
  8
0
  6
Continuous
 62
     7
370
    15
100
AcDbLine
 10
-1173.2117641649
 20
54.331944232
 30
0.0
 11
-1145.2117633006
 21
54.331944232
 31
0.0
  0
LINE
  5
3E7
330
1F
100
AcDbEntity
  8
0
  6
Continuous
 62
     7
370
    15
100
AcDbLine
 10
-1173.2117641649
 20
50.3319957304
 30
0.0
 11
-1145.2117633006
 21
50.3319957304
 31
0.0
  0
LINE
  5
3E8
330
1F
100
AcDbEntity
  8
0
  6
Continuous
 62
     7
370
    15
100
AcDbLine
 10
-1159.9112857065
 20
70.3319766569
 30
0.0
 11
-1160.1823527298
 21
54.331944232
 31
0.0
  0
LINE
  5
3E9
330
1F
100
AcDbEntity
  8
0
  6
Continuous
 62
     7
370
    15
100
AcDbLine
 10
-1159.9112857065
 20
70.3319766569
 30
0.0
 11
-1158.512241759
 21
70.3319766569
 31
0.0
  0
LINE
  5
3EA
330
1F
100
AcDbEntity
  8
0
  6
Continuous
 62
     7
370
    15
100
AcDbLine
 10
-1158.512241759
 20
70.3319766569
 30
0.0
 11
-1158.2411747358
 21
54.331944232
 31
0.0
  0
LINE
  5
3EB
330
1F
100
AcDbEntity
  8
0
  6
Continuous
 62
     7
370
    15
100
AcDbLine
 10
-1158.512241759
 20
70.3319766569
 30
0.0
 11
-1156.9028753719
 21
70.3319766569
 31
0.0
  0
LINE
  5
3EC
330
1F
100
AcDbEntity
  8
0
  6
Continuous
 62
     7
370
    15
100
AcDbLine
 10
-1161.5206520936
 20
70.3319766569
 30
0.0
 11
-1159.9112857065
 21
70.3319766569
 31
0.0
  0
SPLINE
  5
3ED
330
1F
100
AcDbEntity
  8
0
  6
Continuous
 62
     7
370
    15
100
AcDbSpline
210
0.0
220
0.0
230
1.0
 70
     8
 71
     3
 72
     9
 73
     5
 74
     0
 42
0.000000001
 43
0.00000001
 40
0.0
 40
0.0
 40
0.0
 40
0.0
 40
0.5824611664134779
 40
1.0
 40
1.0
 40
1.0
 40
1.0
 10
-1183.155510195228
 20
2143.427419616952
 30
0.0
 10
-1183.169030813039
 20
2143.227084388247
 30
0.0
 10
-1183.192243721626
 20
2142.883138318951
 30
0.0
 10
-1183.171454724797
 20
2142.540871435356
 30
0.0
 10
-1183.16277451131
 20
2142.397961720004
 30
0.0
  0
SPLINE
  5
3EE
330
1F
100
AcDbEntity
  8
0
  6
Continuous
 62
     7
370
    15
100
AcDbSpline
210
0.0
220
0.0
230
1.0
 70
     8
 71
     3
 72
     9
 73
     5
 74
     0
 42
0.000000001
 43
0.00000001
 40
0.0
 40
0.0
 40
0.0
 40
0.0
 40
0.5000010932968474
 40
1.0
 40
1.0
 40
1.0
 40
1.0
 10
-1183.155510195228
 20
2146.531071188971
 30
0.0
 10
-1183.168327075183
 20
2146.013732202051
 30
0.0
 10
-1183.193960779044
 20
2144.979056490625
 30
0.0
 10
-1183.168327037816
 20
2143.944631154221
 30
0.0
 10
-1183.155510195228
 20
2143.427419616952
 30
0.0
  0
SPLINE
  5
3EF
330
1F
100
AcDbEntity
  8
0
  6
Continuous
 62
     7
370
    15
100
AcDbSpline
210
0.0
220
0.0
230
1.0
 70
     8
 71
     3
 72
     9
 73
     5
 74
     0
 42
0.000000001
 43
0.00000001
 40
0.0
 40
0.0
 40
0.0
 40
0.0
 40
0.4999987052023287
 40
1.0
 40
1.0
 40
1.0
 40
1.0
 10
-1183.155510195228
 20
2148.435675912648
 30
0.0
 10
-1183.168327034373
 20
2148.118633408944
 30
0.0
 10
-1183.193960779044
 20
2147.484546759507
 30
0.0
 10
-1183.168327078627
 20
2146.848896927841
 30
0.0
 10
-1183.155510195228
 20
2146.531071188971
 30
0.0
  0
LINE
  5
3F0
330
1F
100
AcDbEntity
  8
0
  6
Continuous
 62
     7
370
    15
100
AcDbLine
 10
-1183.1627335331
 20
2148.2669959321
 30
0.0
 11
-1183.1555101952
 21
2148.4356759126
 31
0.0
  0
LINE
  5
3F1
330
1F
100
AcDbEntity
  8
0
  6
Continuous
 62
     7
370
    15
100
AcDbLine
 10
-1172.3117638311
 20
2140.7986887741
 30
0.0
 11
-1172.3117638311
 21
2165.3320238936
 31
0.0
  0
LINE
  5
3F2
330
1F
100
AcDbEntity
  8
0
  6
Continuous
 62
     7
370
    15
100
AcDbLine
 10
-1172.3117638311
 20
2125.3320247877
 30
0.0
 11
-1172.3117638311
 21
2140.7986887741
 31
0.0
  0
LINE
  5
3F3
330
1F
100
AcDbEntity
  8
0
  6
Continuous
 62
     7
370
    15
100
AcDbLine
 10
-1180.3117614171
 20
2140.7986887741
 30
0.0
 11
-1180.3117614171
 21
2165.3320238936
 31
0.0
  0
LINE
  5
3F4
330
1F
100
AcDbEntity
  8
0
  6
Continuous
 62
     7
370
    15
100
AcDbLine
 10
-1180.3117614171
 20
2125.3320247877
 30
0.0
 11
-1180.3117614171
 21
2140.7986887741
 31
0.0
  0
LINE
  5
3F5
330
1F
100
AcDbEntity
  8
0
  6
Continuous
 62
     7
370
    15
100
AcDbLine
 10
-1141.511763998
 20
2145.3320243406
 30
0.0
 11
-1141.511763998
 21
2161.3320251006
 31
0.0
  0
LINE
  5
3F6
330
1F
100
AcDbEntity
  8
0
  6
Continuous
 62
     7
370
    15
100
AcDbLine
 10
-1141.511763998
 20
2129.3320235807
 30
0.0
 11
-1141.511763998
 21
2145.3320243406
 31
0.0
  0
LINE
  5
3F7
330
1F
100
AcDbEntity
  8
0
  6
Continuous
 62
     7
370
    15
100
AcDbLine
 10
-1139.7117633304
 20
2145.3320243406
 30
0.0
 11
-1139.7117633304
 21
2131.1320242482
 31
0.0
  0
LINE
  5
3F8
330
1F
100
AcDbEntity
  8
0
  6
Continuous
 62
     7
370
    15
100
AcDbLine
 10
-1139.7117633304
 20
2159.532024433
 30
0.0
 11
-1139.7117633304
 21
2145.3320243406
 31
0.0
  0
LINE
  5
3F9
330
1F
100
AcDbEntity
  8
0
  6
Continuous
 62
     7
370
    15
100
AcDbLine
 10
-1143.1117631427
 20
2145.3320243406
 30
0.0
 11
-1143.4823382578
 21
2142.7713999535
 31
0.0
  0
LWPOLYLINE
  5
3FA
330
1F
100
AcDbEntity
  8
0
  6
Continuous
 62
     7
370
    15
100
AcDbPolyline
 90
       17
 70
   128
 43
0.0
 10
-1168.1829500875
 20
2145.1047294929
 10
-1168.1867349825
 20
2147.1026453898
 10
-1167.3090528629
 20
2150.2577638264
 10
-1165.5895110151
 20
2153.1544336128
 10
-1162.7390790662
 20
2155.7903633463
 10
-1161.0645946047
 20
2156.738477667
 10
-1159.2141050777
 20
2157.4354776192
 10
-1156.4519140801
 20
2157.910266799
 10
-1153.5870578072
 20
2157.7515908527
 10
-1150.4255305907
 20
2156.7694953653
 10
-1148.4420519254
 20
2155.623695721
 10
-1146.711831533
 20
2154.150256795
 10
-1145.234468945
 20
2152.3288045089
 10
-1144.0913878313
 20
2150.2030500221
 10
-1143.2061973891
 20
2146.8717679625
 10
-1143.1117631427
 20
2145.3320243406
 10
-1143.1117631427
 20
2145.3320243406
  0
LINE
  5
3FB
330
1F
100
AcDbEntity
  8
0
  6
Continuous
 62
     7
370
    15
100
AcDbLine
 10
-1125.211763282
 20
2145.9420078561
 30
0.0
 11
-1125.211763282
 21
2160.3320240054
 31
0.0
  0
LINE
  5
3FC
330
1F
100
AcDbEntity
  8
0
  6
Continuous
 62
     7
370
    15
100
AcDbLine
 10
-1125.211763282
 20
2130.3320246759
 30
0.0
 11
-1125.211763282
 21
2145.9420078561
 31
0.0
  0
LINE
  5
3FD
330
1F
100
AcDbEntity
  8
0
  6
Continuous
 62
     7
370
    15
100
AcDbLine
 10
-1123.211763187
 20
2146.5519913715
 30
0.0
 11
-1123.211763187
 21
2115.3320250112
 31
0.0
  0
LINE
  5
3FE
330
1F
100
AcDbEntity
  8
0
  6
Continuous
 62
     7
370
    15
100
AcDbLine
 10
-1123.211763187
 20
2175.3320236701
 30
0.0
 11
-1123.211763187
 21
2146.5519913715
 31
0.0
  0
LINE
  5
3FF
330
1F
100
AcDbEntity
  8
0
  6
Continuous
 62
     7
370
    15
100
AcDbLine
 10
-1121.211763092
 20
2146.5519913715
 30
0.0
 11
-1121.211763092
 21
2175.3320236701
 31
0.0
  0
LINE
  5
400
330
1F
100
AcDbEntity
  8
0
  6
Continuous
 62
     7
370
    15
100
AcDbLine
 10
-1121.211763092
 20
2115.3320250112
 30
0.0
 11
-1121.211763092
 21
2146.5519913715
 31
0.0
  0
LINE
  5
401
330
1F
100
AcDbEntity
  8
0
  6
Continuous
 62
     8
370
    15
100
AcDbLine
 10
-1149.2117639563
 20
2143.6798039601
 30
0.0
 11
-1149.2117639563
 21
2152.7820242579
 31
0.0
  0
LINE
  5
402
330
1F
100
AcDbEntity
  8
0
  6
Continuous
 62
     8
370
    15
100
AcDbLine
 10
-1149.2117639563
 20
2137.8820244233
 30
0.0
 11
-1149.2117639563
 21
2143.6798039601
 31
0.0
  0
LINE
  5
403
330
1F
100
AcDbEntity
  8
0
  6
Continuous
 62
     8
370
    15
100
AcDbLine
 10
-1144.5117626271
 20
2186.9833664048
 30
0.0
 11
-1144.5117626271
 21
2168.832023536
 31
0.0
  0
LINE
  5
404
330
1F
100
AcDbEntity
  8
0
  6
Continuous
 62
     8
370
    15
100
AcDbLine
 10
-1144.5117626271
 20
2198.8320247281
 30
0.0
 11
-1144.5117626271
 21
2186.9833664048
 31
0.0
  0
LINE
  5
405
330
1F
100
AcDbEntity
  8
0
  6
Continuous
 62
     8
370
    15
100
AcDbLine
 10
-1143.1843522868
 20
2198.6641072679
 30
0.0
 11
-1143.1843522868
 21
2168.9999428588
 31
0.0
  0
LINE
  5
406
330
1F
100
AcDbEntity
  8
0
  6
Continuous
 62
     8
370
    15
100
AcDbLine
 10
-1143.3817628703
 20
2168.832023536
 30
0.0
 11
-1143.3817628703
 21
2198.8320247281
 31
0.0
  0
LINE
  5
407
330
1F
100
AcDbEntity
  8
0
  6
Continuous
 62
     8
370
    15
100
AcDbLine
 10
-1144.9117638102
 20
2185.8803973544
 30
0.0
 11
-1144.9117638102
 21
2193.5820252645
 31
0.0
  0
LINE
  5
408
330
1F
100
AcDbEntity
  8
0
  6
Continuous
 62
     8
370
    15
100
AcDbLine
 10
-1144.9117638102
 20
2174.0820248622
 30
0.0
 11
-1144.9117638102
 21
2185.8803973544
 31
0.0
  0
LINE
  5
409
330
1F
100
AcDbEntity
  8
0
  6
Continuous
 62
     8
370
    15
100
AcDbLine
 10
-1180.0433766029
 20
2196.332023387
 30
0.0
 11
-1180.0433766029
 21
2171.3320248771
 31
0.0
  0
LINE
  5
40A
330
1F
100
AcDbEntity
  8
0
  6
Continuous
 62
     8
370
    15
100
AcDbLine
 10
-1180.240474262
 20
2171.4980890054
 30
0.0
 11
-1180.240474262
 21
2196.1659611213
 31
0.0
  0
LINE
  5
40B
330
1F
100
AcDbEntity
  8
0
  6
Continuous
 62
     8
370
    15
100
AcDbLine
 10
-1181.839175143
 20
2130.4999430674
 30
0.0
 11
-1181.839175143
 21
2160.1641056138
 31
0.0
  0
LINE
  5
40C
330
1F
100
AcDbEntity
  8
0
  6
Continuous
 62
     8
370
    15
100
AcDbLine
 10
-1181.6417645595
 20
2160.3320240054
 30
0.0
 11
-1181.6417645595
 21
2130.3320246759
 31
0.0
  0
ENDSEC
  0
SECTION
  2
OBJECTS
  0
DICTIONARY
  5
C
330
0
100
AcDbDictionary
281
     1
  3
ACAD_GROUP
350
D
  3
ACAD_LAYOUT
350
1A
  3
ACAD_MLINESTYLE
350
17
  3
ACAD_PLOTSETTINGS
350
19
  3
ACAD_PLOTSTYLENAME
350
E
  3
ACAD_SCALELIST
350
47
  0
DICTIONARY
  5
D
102
{ACAD_REACTORS
330
C
102
}
330
C
100
AcDbDictionary
281
     1
  0
DICTIONARY
  5
1A
102
{ACAD_REACTORS
330
C
102
}
330
C
100
AcDbDictionary
281
     1
  3
Layout1
350
1E
  3
Layout2
350
26
  3
Model
350
22
  0
DICTIONARY
  5
17
102
{ACAD_REACTORS
330
C
102
}
330
C
100
AcDbDictionary
281
     1
  3
Standard
350
18
  0
DICTIONARY
  5
19
102
{ACAD_REACTORS
330
C
102
}
330
C
100
AcDbDictionary
281
     1
  0
ACDBDICTIONARYWDFLT
  5
E
102
{ACAD_REACTORS
330
C
102
}
330
C
100
AcDbDictionary
281
     1
  3
Normal
350
F
100
AcDbDictionaryWithDefault
340
F
  0
DICTIONARY
  5
47
102
{ACAD_REACTORS
330
C
102
}
330
C
100
AcDbDictionary
281
     1
  3
A0
350
48
  3
A1
350
49
  3
A2
350
4A
  3
A3
350
4B
  3
A4
350
4C
  3
A5
350
4D
  3
A6
350
4E
  3
A7
350
4F
  3
A8
350
50
  3
A9
350
51
  3
B0
350
52
  3
B1
350
53
  3
B2
350
54
  3
B3
350
55
  3
B4
350
56
  3
B5
350
57
  3
B6
350
58
  3
B7
350
59
  3
B8
350
5A
  3
B9
350
5B
  3
C0
350
5C
  3
C1
350
5D
  3
C2
350
5E
  3
C3
350
5F
  3
C4
350
60
  3
C5
350
61
  3
C6
350
62
  3
C7
350
63
  3
C8
350
64
  3
C9
350
65
  3
D0
350
66
  3
D1
350
67
  3
D2
350
68
  0
LAYOUT
  5
1E
102
{ACAD_REACTORS
330
1A
102
}
330
1A
100
AcDbPlotSettings
  1

  2
none_device
  4

  6

 40
0.0
 41
0.0
 42
0.0
 43
0.0
 44
0.0
 45
0.0
 46
0.0
 47
0.0
 48
0.0
 49
0.0
140
0.0
141
0.0
142
1.0
143
1.0
 70
   688
 72
     1
 73
     0
 74
     5
  7

 75
    16
147
1.0
148
0.0
149
0.0
100
AcDbLayout
  1
Layout1
 70
     1
 71
     1
 10
0.0
 20
0.0
 11
420.0
 21
297.0
 12
0.0
 22
0.0
 32
0.0
 14
1.0000000000E+20
 24
1.0000000000E+20
 34
1.0000000000E+20
 15
-1.0000000000E+20
 25
-1.0000000000E+20
 35
-1.0000000000E+20
146
0.0
 13
0.0
 23
0.0
 33
0.0
 16
1.0
 26
0.0
 36
0.0
 17
0.0
 27
1.0
 37
0.0
 76
     0
330
1B
  0
LAYOUT
  5
26
102
{ACAD_REACTORS
330
1A
102
}
330
1A
100
AcDbPlotSettings
  1

  2
none_device
  4

  6

 40
0.0
 41
0.0
 42
0.0
 43
0.0
 44
0.0
 45
0.0
 46
0.0
 47
0.0
 48
0.0
 49
0.0
140
0.0
141
0.0
142
1.0
143
1.0
 70
   688
 72
     1
 73
     0
 74
     5
  7

 75
    16
147
1.0
148
0.0
149
0.0
100
AcDbLayout
  1
Layout2
 70
     1
 71
     2
 10
0.0
 20
0.0
 11
0.0
 21
0.0
 12
0.0
 22
0.0
 32
0.0
 14
0.0
 24
0.0
 34
0.0
 15
0.0
 25
0.0
 35
0.0
146
0.0
 13
0.0
 23
0.0
 33
0.0
 16
1.0
 26
0.0
 36
0.0
 17
0.0
 27
1.0
 37
0.0
 76
     0
330
23
  0
LAYOUT
  5
22
102
{ACAD_REACTORS
330
1A
102
}
330
1A
100
AcDbPlotSettings
  1

  2
none_device
  4
Letter_(8.50_x_11.00_Inches)
  6

 40
6.35
 41
6.35
 42
6.35000508
 43
6.35000508
 44
215.9
 45
279.4
 46
0.0
 47
0.0
 48
0.0
 49
0.0
140
0.0
141
0.0
142
1.0
143
1.0
 70
  1712
 72
     1
 73
     0
 74
     0
  7

 75
     0
147
1.0
148
0.0
149
0.0
100
AcDbLayout
  1
Model
 70
     1
 71
     0
 10
0.0
 20
0.0
 11
431.8
 21
279.4
 12
0.0
 22
0.0
 32
0.0
 14
0.0
 24
0.0
 34
0.0
 15
431.8
 25
279.4
 35
0.0
146
0.0
 13
0.0
 23
0.0
 33
0.0
 16
1.0
 26
0.0
 36
0.0
 17
0.0
 27
1.0
 37
0.0
 76
     0
330
1F
331
29
  0
MLINESTYLE
  5
18
102
{ACAD_REACTORS
330
17
102
}
330
17
100
AcDbMlineStyle
  2
Standard
 70
     0
  3

 62
   256
 51
90.0
 52
90.0
 71
     2
 49
0.5
 62
   256
  6
BYLAYER
 49
-0.5
 62
   256
  6
BYLAYER
  0
ACDBPLACEHOLDER
  5
F
102
{ACAD_REACTORS
330
E
102
}
330
E
  0
SCALE
  5
48
102
{ACAD_REACTORS
330
47
102
}
330
47
100
AcDbScale
 70
     0
300
1:1
140
1.0
141
1.0
290
     1
  0
SCALE
  5
49
102
{ACAD_REACTORS
330
47
102
}
330
47
100
AcDbScale
 70
     0
300
1:2
140
1.0
141
2.0
290
     0
  0
SCALE
  5
4A
102
{ACAD_REACTORS
330
47
102
}
330
47
100
AcDbScale
 70
     0
300
1:4
140
1.0
141
4.0
290
     0
  0
SCALE
  5
4B
102
{ACAD_REACTORS
330
47
102
}
330
47
100
AcDbScale
 70
     0
300
1:5
140
1.0
141
5.0
290
     0
  0
SCALE
  5
4C
102
{ACAD_REACTORS
330
47
102
}
330
47
100
AcDbScale
 70
     0
300
1:8
140
1.0
141
8.0
290
     0
  0
SCALE
  5
4D
102
{ACAD_REACTORS
330
47
102
}
330
47
100
AcDbScale
 70
     0
300
1:10
140
1.0
141
10.0
290
     0
  0
SCALE
  5
4E
102
{ACAD_REACTORS
330
47
102
}
330
47
100
AcDbScale
 70
     0
300
1:16
140
1.0
141
16.0
290
     0
  0
SCALE
  5
4F
102
{ACAD_REACTORS
330
47
102
}
330
47
100
AcDbScale
 70
     0
300
1:20
140
1.0
141
20.0
290
     0
  0
SCALE
  5
50
102
{ACAD_REACTORS
330
47
102
}
330
47
100
AcDbScale
 70
     0
300
1:30
140
1.0
141
30.0
290
     0
  0
SCALE
  5
51
102
{ACAD_REACTORS
330
47
102
}
330
47
100
AcDbScale
 70
     0
300
1:40
140
1.0
141
40.0
290
     0
  0
SCALE
  5
52
102
{ACAD_REACTORS
330
47
102
}
330
47
100
AcDbScale
 70
     0
300
1:50
140
1.0
141
50.0
290
     0
  0
SCALE
  5
53
102
{ACAD_REACTORS
330
47
102
}
330
47
100
AcDbScale
 70
     0
300
1:100
140
1.0
141
100.0
290
     0
  0
SCALE
  5
54
102
{ACAD_REACTORS
330
47
102
}
330
47
100
AcDbScale
 70
     0
300
2:1
140
2.0
141
1.0
290
     0
  0
SCALE
  5
55
102
{ACAD_REACTORS
330
47
102
}
330
47
100
AcDbScale
 70
     0
300
4:1
140
4.0
141
1.0
290
     0
  0
SCALE
  5
56
102
{ACAD_REACTORS
330
47
102
}
330
47
100
AcDbScale
 70
     0
300
8:1
140
8.0
141
1.0
290
     0
  0
SCALE
  5
57
102
{ACAD_REACTORS
330
47
102
}
330
47
100
AcDbScale
 70
     0
300
10:1
140
10.0
141
1.0
290
     0
  0
SCALE
  5
58
102
{ACAD_REACTORS
330
47
102
}
330
47
100
AcDbScale
 70
     0
300
100:1
140
100.0
141
1.0
290
     0
  0
SCALE
  5
59
102
{ACAD_REACTORS
330
47
102
}
330
47
100
AcDbScale
 70
     0
300
1/128" = 1'-0"
140
0.0078125
141
12.0
290
     0
  0
SCALE
  5
5A
102
{ACAD_REACTORS
330
47
102
}
330
47
100
AcDbScale
 70
     0
300
1/64" = 1'-0"
140
0.015625
141
12.0
290
     0
  0
SCALE
  5
5B
102
{ACAD_REACTORS
330
47
102
}
330
47
100
AcDbScale
 70
     0
300
1/32" = 1'-0"
140
0.03125
141
12.0
290
     0
  0
SCALE
  5
5C
102
{ACAD_REACTORS
330
47
102
}
330
47
100
AcDbScale
 70
     0
300
1/16" = 1'-0"
140
0.0625
141
12.0
290
     0
  0
SCALE
  5
5D
102
{ACAD_REACTORS
330
47
102
}
330
47
100
AcDbScale
 70
     0
300
3/32" = 1'-0"
140
0.09375
141
12.0
290
     0
  0
SCALE
  5
5E
102
{ACAD_REACTORS
330
47
102
}
330
47
100
AcDbScale
 70
     0
300
1/8" = 1'-0"
140
0.125
141
12.0
290
     0
  0
SCALE
  5
5F
102
{ACAD_REACTORS
330
47
102
}
330
47
100
AcDbScale
 70
     0
300
3/16" = 1'-0"
140
0.1875
141
12.0
290
     0
  0
SCALE
  5
60
102
{ACAD_REACTORS
330
47
102
}
330
47
100
AcDbScale
 70
     0
300
1/4" = 1'-0"
140
0.25
141
12.0
290
     0
  0
SCALE
  5
61
102
{ACAD_REACTORS
330
47
102
}
330
47
100
AcDbScale
 70
     0
300
3/8" = 1'-0"
140
0.375
141
12.0
290
     0
  0
SCALE
  5
62
102
{ACAD_REACTORS
330
47
102
}
330
47
100
AcDbScale
 70
     0
300
1/2" = 1'-0"
140
0.5
141
12.0
290
     0
  0
SCALE
  5
63
102
{ACAD_REACTORS
330
47
102
}
330
47
100
AcDbScale
 70
     0
300
3/4" = 1'-0"
140
0.75
141
12.0
290
     0
  0
SCALE
  5
64
102
{ACAD_REACTORS
330
47
102
}
330
47
100
AcDbScale
 70
     0
300
1" = 1'-0"
140
1.0
141
12.0
290
     0
  0
SCALE
  5
65
102
{ACAD_REACTORS
330
47
102
}
330
47
100
AcDbScale
 70
     0
300
1-1/2" = 1'-0"
140
1.5
141
12.0
290
     0
  0
SCALE
  5
66
102
{ACAD_REACTORS
330
47
102
}
330
47
100
AcDbScale
 70
     0
300
3" = 1'-0"
140
3.0
141
12.0
290
     0
  0
SCALE
  5
67
102
{ACAD_REACTORS
330
47
102
}
330
47
100
AcDbScale
 70
     0
300
6" = 1'-0"
140
6.0
141
12.0
290
     0
  0
SCALE
  5
68
102
{ACAD_REACTORS
330
47
102
}
330
47
100
AcDbScale
 70
     0
300
1'-0" = 1'-0"
140
12.0
141
12.0
290
     0
  0
ENDSEC
  0
EOF
